PrimaNota.ru - самый крупный в мире бесплатный архив песенных текстов, аккордов, табулатур и нот


Becca - Im Alive Kuroshitsuji Ed 1 - таба, видео

Регистрация Запомнить меня
Войти через:  Facebook Google Twitter Vk Yandex Mail.ru

Becca - Im Alive Kuroshitsuji Ed 1 - таба, видео

Печатать
Просмотров: 74
-------------------------------------------------------------------------------
                          I'M ALIVE  / KUROSHITSUJI ED 1 - Becca
-------------------------------------------------------------------------------
Tabbed by:k_shiina
E-mail:

Tuning:Standard

Intro
 *repeat first part
e|-----------------------------------------------------|-----------|
B|-----------------------------------------------------|-----------|
G|-----5h6p5-----5h6p5h6p5h6-----5h6p5-----5h6p5h6p5h6-|-----------|
D|-----------------------------------------------------|--66-6666--|
A|-----------------------------------------------------|--66-6666--|
E|-4-4-------8-8-------------6-6-------8-8-------------|--44-4444--|

Verse
 *repeat, play last chord once (listen to the song)
e|----------------------------------------------------------------------------|
B|----------------------------------------------------------------------------|
G|--------------------88888888-88888888---------------------66666666-66666666-|
D|-66666666-66666666--88888888-88888888--88888888-88888888--66666666-66666666-|
A|-66666666-66666666--66666666-66666666--88888888-88888888--44444444-44444444-|
E|-44444444-44444444---------------------66666666-66666666--------------------|

Chorus
 *repeat first part
e|----------------------------------------------------------------------------|
B|----------------------------------------------------------------------------|
G|--------------------55555555-55555555---------------------88888888----------|
D|-66666666-66666666--55555555-55555555--33333333-33333333--88888888-66666666-|
A|-66666666-66666666--33333333-33333333--33333333-33333333--66666666-66666666-|
E|-44444444-44444444---------------------11111111-11111111-----------44444444-|

e|---------------------------------------|------------------------|
B|---------------------------------------|------------------------|
G|-66666666-66666666--55555555--55555555-|-6666--8888--9999--6666-|
D|-66666666-66666666--55555555--55555555-|-6666--8888--9999--6666-|
A|-44444444-44444444--33333333--11111111-|-4444--6666--7777--4444-|
E|---------------------------------------|------------------------|

Bridge

e|-----------------------------------------------------------|
B|-----------------------------------------------------------|
G|-----------------------------------------------------------|
D|-22222222--44444444----------------------------------------|
A|-22222222--44444444--44444444--66666666--77777777--9999999-|
E|-----------22222222----------------------------------------|

Outro

e|-----------------------------------------|
B|-----------------------------------------|
G|-----------------------------------------|
D|-----------------------------------------|
A|-11-11-11-11-111111-11-11-11-11-111111-11|
E|-9--9--9--9--9 9 9--9--9--9--9--9 9 9--9-|

************************************

| /   slide up
| \   slide down
| h   hammer-on
| p   pull-off
| ~   vibrato
| +   harmonic
| x   Mute note
| b   Bend
| pb  Pre-bend
| br  Bend release
| pbr Pre-bend release
| brb Bend release bend

************************************
Добавлено: 25.11.2015
Вам также может быть интересно:
Другие материалы по этой песне:
  • Аккорды и текст

Страница создана 25.11.2015
http://primanota.ru/becca/im-alive-kuroshitsuji-ed-1-chords.htm
Привет, Гость.
Предлагаем пройти революционный курс по гитаре.
Подарок от PrimaNota.Ru, забирай!