PrimaNota.ru - самый крупный в мире бесплатный архив песенных текстов, аккордов, табулатур и нот


Bebop Cowboy - Waltz For Zizi - таба, видео

Регистрация Запомнить меня
Войти через:  Facebook Google Twitter Vk Yandex Mail.ru

Bebop Cowboy - Waltz For Zizi - таба, видео

Печатать
Просмотров: 165
Уроки эстрадного вокала в Санкт-Петербурге
Artist: Not a clue. Played frequently in Cowboy Bebop
Song: Waltz for Zizi
Album: Cowboy Bebop OST?

I clearly don't know much about the song, where it's from,
or who wrote/plays it. Anyways, there's another tab out there,
but I figured writing in the chords would make it more interesting.
The chords should be swept from the lower notes.
Email me with comments,
darktemplar006@hotmail.com
-Shane Vann-Shirley

e-----------2s4-------2--0-------------------------------
b---0-0--0--------4---2------2--0----0-------------------
g--------1------------2------2--1----1-------------------
d--------2------------2------2--2----2-------------------
a--------2----------------------2----2-------------------
e--------------------------------------------------------

-------0---2--4---5--4---2-------------------------------
---0----------3----------2----2--------------------------
---1----------4----------2----2--------------------------
---2----------3----------2----2--------------------------
---2-----------------------------------------------------
---------------------------------------------------------

--------5---1--4---2-------------------------------------
---2-----------3-----3---2-----1-------------------------
---2-----------4---------2-----2-------------------------
---2-----------3---------2-----2-------------------------
---------------------------------------------------------
---------------------------------------------------------

----------------------------------2----------------------
------2---2s4--2--------2--2s4--2------------------------
---1-----------2-----1----------2------------------------
---2-----------2-----2----------2------------------------
---2-----------------2-----------------------------------
---------------------------------------------------------

     
Добавлено: 26.11.2013
Другие материалы по этой песне:
  • Аккорды и текст

Страница создана 26.11.2013
http://primanota.ru/bebop-cowboy/waltz-for-zizi-chords.htm
Привет, Гость.
Предлагаем пройти революционный курс по гитаре.
Подарок от PrimaNota.Ru, забирай!