PrimaNota.ru - самый крупный в мире бесплатный архив песенных текстов, аккордов, табулатур и нот


Bebo Norman - My Love - текст песни, таба, видео

Регистрация Запомнить меня
Войти через:  Facebook Google Twitter Vk Yandex Mail.ru

Bebo Norman - My Love - текст песни, таба, видео

Печатать
Просмотров: 149
-------------------------------------------------------------------------------
                             MY LOVE - Bebo Norman
-------------------------------------------------------------------------------
Tabbed by: sgrammer

Tuning: Standard; Capo 5


CHORUS
    ' 1 ' + ' * ' + ' 1 ' + ' * ' + ' 1 ' + ' * ' + ' 1 ' + ' * ' + '  
e|---|---------------|---------------|---------------|---------------|
B|---|2h3-----------2|---------------|2h3---5---3---2|----------2h3--|
G|---|----2-------2--|----2-------2--|----2-------2--|----2---------2|
D|---|---------------|---------------|---------------|---------------|
A|--0|0-------0------|0-------0------|0-------0------|0-------0------|
E|---|---------------|---------------|---------------|---------------|

    1 ' + ' * ' + ' 1 ' + ' * ' + ' 1 ' + ' * ' + ' 1 ' + ' * ' + '  
e|------------0----|0h2-------0----|0h2-------0----|0h2------------|
B|-----------------|---------------|---------------|---------------|
G|------2-------2--|----2-------2--|----2-------2--|----2-------2--|*
D|--0-------0------|0-------0------|0-------0------|0-------0------|*
A|-----------------|---------------|---------------|---------------|
E|-----------------|---------------|---------------|---------------|


VERSE
    1 ' + ' * ' + ' 1 ' + ' * ' + ' 1 ' + ' * ' + ' 1 ' + ' * ' + '  
e|-----------------|----------0----|---------------|---------------|
B|------------2----|------3-------0|---------------|----------2----|
G|--------4-------0|----2----------|------2-------2|------2-------0|* 3x
D|------4----------|0-------0---0--|----2-------2--|----2----------|*
A|--2-------2---2--|---------------|0-------0------|0-------0---0--|
E|-----------------|---------------|---------------|---------------|

    1 ' + ' * ' + ' 1 ' + ' * ' + ' 1 ' + ' * ' + ' 1 ' + ' * ' + '  
e|------------0----|0h2-------0----|0h2-------0----|0h2------------|
B|-----------------|---------------|---------------|---------------|
G|------2-------2--|----2-------2--|----2-------2--|----2-------2--|
D|--0-------0------|0-------0------|0-------0------|0-------0------|
A|-----------------|---------------|---------------|---------------|
E|-----------------|---------------|---------------|---------------|


BRIDGE
    1 ' + ' * ' + ' 1 ' + ' * ' + ' 1 ' + ' * ' + '   
e|----------------0|---------------|---------------|
B|------------0----|----------0----|---------------|
G|--------4--------|------4-------4|------4--------|
D|------4----------|----4----------|----4----------|
A|--2-------2---2--|2-------2---2--|2--------------|
E|-----------------|---------------|---------------|
  (She did not cry...)                        (But she waved good...)

    1 ' + ' * ' + ' 1 ' + ' * ' + ' 1 ' + ' * ' + ' 1 ' + ' * ' + '  
e|------------0----|0h2-------0----|0h2-------0----|0h2------------|
B|-----------------|---------------|---------------|---------------|
G|------2-------2--|----2-------2--|----2-------2--|----2-------2--|
D|--0-------0------|0-------0------|0-------0------|0-------0------|
A|-----------------|---------------|---------------|---------------|
E|-----------------|---------------|---------------|---------------|
         (...bye...)


ENDING
    1 ' + ' * ' + ' 1 ' + ' * ' + ' 1 ' + ' * ' + ' 1 ' + ' * ' + '  
e|-----------------|---------------|---------------|---------------|
B|--2h3-----------2|---------------|2h3---5---3---2|----------2h3--|
G|------2-------2--|----2-------2--|----2-------2--|----2---------2|
D|-----------------|---------------|---------------|---------------|
A|--0-------0------|0-------0------|0-------0------|0-------0------|
E|-----------------|---------------|---------------|---------------|

    1 ' + ' * ' + ' 1 ' + ' * ' + ' 1 ' + ' * ' + ' 1 ' + ' * ' + '  
e|------------0----|0h2-------0----|0h2-----2p0----|0h2------------|
B|-----------------|---------------|---------------|---------------|
G|------2-------2--|----2-------2--|----2-------2--|----2-------2--|
D|--0-------0------|0-------0------|0-------0------|0-------0------|
A|-----------------|---------------|---------------|---------------|
E|-----------------|---------------|---------------|---------------|

    1 ' + ' * ' + ' 1 ' + ' * ' + ' 1 ' + ' * ' + ' 1 ' + ' * ' + ' 1 ' + ' * ' + ' 1 ' + ' * ' + '
e|-----------------|---------------|---------------|---------------|--------0------|0h2-----------|
B|--2h3-------5---2|---------------|2h3---5---3---2|------2---2h3--|----3-----3----|--------------|
G|------2-------2--|----2-------2--|----2-------2--|--------------2|--2---------2--|--------------|
D|-----------------|---------------|---------------|---------------|0-----0-------0|0-------------|
A|--0-------0------|0-------0------|0-------0------|0--------------|---------------|--------------|
E|-----------------|---------------|---------------|---------------|---------------|--------------|



************************************

| /   slide up
| \   slide down
| h   hammer-on
| p   pull-off
| ~   vibrato
| +   harmonic
| x   Mute note
| b   Bend
| pb  Pre-bend
| br  Bend release
| pbr Pre-bend release
| brb Bend release bend

************************************
Добавлено: 07.05.2012
Другие материалы по этой песне:
  • Аккорды и текст

Страница создана 07.05.2012
http://primanota.ru/bebo-norman/my-love-chords.htm
Привет, Гость.
Предлагаем пройти революционный курс по гитаре.
Подарок от PrimaNota.Ru, забирай!