PrimaNota.ru - самый крупный в мире бесплатный архив песенных текстов, аккордов, табулатур и нот


Beautiful South - Painting It Red Album - аккорды и текст, видео

Регистрация Запомнить меня
Войти через:  Facebook Google Twitter Vk Yandex Mail.ru

Beautiful South - Painting It Red Album - аккорды и текст, видео

Печатать
Просмотров: 125
Painting It Red Album
Beautiful South
		The Beautiful South - Painting It Red
		-------------------------------------

This is TBS last album, Painting It Red, 
including the three songs that were later taken 
out.
 It took me some time because I was preoccupied, 
sorry.
I believe it's mostly correct. I mentioned the 
places where I felt it was not perfect.
If it's not understood, or you want the complete 
lyrics e-mail me, and i'll send it to you.
Comments, corrections, compliments (yeah right) 
or whatever: yshkedy@ort.org.il

Yotam "Kurgan" Shkedy

Who's Gonna Tell?

For all the chords play the bass and then pick 
the 3 treble strings, 
for example:
    C        C/G
e-------0--------0--
B-------1--------1--
G-------0--------0--
D-------------------
A---3---------------
E-------------3-----

C/G  - 332010
G    - 320003
G/D  - xx0003
Em/B - x22000
Em/D - x50000 or xx0000 (the first sounds better)
Dm7  - xx0211

Intro: C C/G  x 4

Verse:
C C/G C G C C/G C C/G
Whose gonna tell...
C C/G C C/G G/D G G/D G
Whose gonna tell...
C C/G Am Am Em Em Dm7 Dm7
It's the news..
C C/G Em/B Em/D C C/G C C/G
That our gag's...
C C/G Em/B Em/D	C C/G
You were great in the sixties...
 

-------------------------------------------------------------

Closer Than Most

Ab Bb Db Ab
Repeat entire song (original, ha?)

-------------------------------------------------------------
 

Just Checkin'

B Abm 

Verse:
B Abm

Chorus:
E Abm
Nothing ..
E F# Db
When 
B E F#  x2
We're running a check... 
E Abm E F# Db
B Abm

Outro
Db Ab Ebm F# x4
I came..
B Abm (Until the end)

-------------------------------------------------------------
 

Hit Parade

Em7 - 022030
Em6 - 022020

Verse Riff:
 B(no 3rd)	C
e----------2------|----------0----------|
B-----------------|------------1---1----|
G*-----4-----4-4-*|*-----0-------0----*-|
D*----4--4----4--*|*----2--2----------*-|
A-1h2-------------|-2h3-----------------|
E-----------------|---------------------|
 

Verse:
B(no 3rd) C (Verse riff)

Chorus:
Dm G Em7 Em6 x2

Outro:
D/F# G D A		
D/F# G
Em
I never hit
Em6
It never hit
D
My hit parade
Em6   D 

-------------------------------------------------------------
 

Masculine Eclipse
 

I'm not sure of the F Dsus2 Em A sequence in the middle, but 
since I can't find anything better, so that's it.

Intro:
F G x4

F G
That grand facade...
F G
when he...
F Dsus2 
Sisters dream...
	Em   A
That ain't...
	F Dsus2
The smile...
Em A
left his...
   D C
G women...
D C G/B
let your...
D C
Don't ...
	D C G/B
Just grab...

F G x2
(Repeat everything all over again)

F G F G
G as...
C Em F G
Jesus...
F G F G
And woman...
C Em F G
Girl...

F G xn
 

-------------------------------------------------------------
 

'Til You Can't Tuck It In

Intro: C# G# F# G#

Verse:
C# G# F# G#

Chorus:
Bbm Bbm F# G# C# G# F# G#
C# C # F# G# C# G# F# G#
Bbm Bbm F# G# C# G# F# G#
 

-------------------------------------------------------------
 

If We Crawl

Intro: Gm Dm Eb Bb

Verse:
Gm Dm Eb Bb

Bridge:
	F Am Bb C
And the target...

Chorus:
Eb Bb C x2
Eb Bb F C
Eb Bb C
 

-------------------------------------------------------------
 

Tupperware Queen

Entire song:
A A D D A E A E
(Even harde than "Closer Than Most")

-------------------------------------------------------------
 

Half-Hearted Get (Is Second Best)

Intro: Am G# C D xn

Verse:
Am G# C D x 3
F G
Am G# C D

Between verses play: Am G# C D
after the second verse you can play this difficult riff:
e------10
B---/10--

-------------------------------------------------------------

White Teeth

I couldn't quite figure this one out, so this is the best I can do.
I know it's a bit (well, more than a bit) off, but that's the best I can 
do.
Suggestions/corrections would be welcomed!

Verse:
Dm F C  Dm x2

Bridge
Bb Am G Am
G good looking...
Bb Am G A

Chorus
Dm
Cos white teeth...
Dm C Dm
False gums...
Dm
Little stones...
	Dm	   C		Dm X2
But the big stones go to the dance

Outro:
Dm F#m A
A G# Dm
Dm F#m A
Bb G# F#m A

Sorry for the slaughter.

-------------------------------------------------------------

The River
 

Verse:
B E B
E C#m C#m B

Chorus:
	C#m B C#m B
If you've...

Outro:
C#m B A(?) B
 

-------------------------------------------------------------
 

Baby Please Go
 

Verse:
D G D G
C G C G

Chorus:
D   C G x2
C G x3
D

Outro:
D F#m x2
Romantic love...
G F#m x2
D
 

-------------------------------------------------------------
 

You Can Call Me Leisure

  A#m  G#  F#  F  D#m7 F#m7
e--6---4---2---1---6----8---
B--6---4---2---1---7----9---
G--6---5---3---2---6----8---
D--8---6---4---3---8----10--
A--8---6---4---3---6----8---
E--6---4---2---1---x----x---

Intro:
A#m G#

Verse:
A#m G# A#m G# x2
F# F
A#m G# A#m G#

Bridge:
G#   A#m G# x2
It's what we thought...
D#m7 Fm7 x2
G#   A#m G#

 

-------------------------------------------------------------
 

Final Spark

B Riff:
  B	 C#	 D#m
e-2-2----4-------6--
B-4--4---6--7-6--7--The last chord is up stroked again at the
G-4----4-6-----4-6--last beat before starting the riff again.
D-4------6-------8--Listen for timing.
A-2------4-------6--
E-------------------

Verse:
B Riff xn (Once for each Line)

C#

Chorus:
F# B F# B F# B C# x 4

(Up one tone)

Verse: Same riff only C# D# Fm

Chorus: G# C# G# C# G# C# D#

Outro: Chorus chords 

-------------------------------------------------------------
 

10,000 Feet

Intro: C Em C Em C Em A D x2

Verse:
N.C

Between verse play the intro sequence once.
Before the last verse play it 3 times, the last time over the words.
 

-------------------------------------------------------------
 

Hot On The Heels Of Heartbreak

D# - x65343
G# - 466544
Bb - 688766

Verse:
D# G# D# Bb 
D# G# D# Bb D# G# D#

Chorus:
Bb D# x3
Bb D# G# D#

Bridge:
Bb G# D# x2
G# D# x3
 

-------------------------------------------------------------
 

The Mediterranean

Verse:
G C G C

Bridge:
C Am C Am C D

Chorus:
G D G D C D C D
 

-------------------------------------------------------------
 

A Little Piece Of Advice

Intro:
Dm G x 4

Verse:
Dm G x2
F  C  Dm G Dm G
Dm G x2
F  C  Dm G Dm G x3

Chorus:
F Am G
F Am F
F Am x 3
F C

End chords:
Dm G x 4
F C Dm 

-------------------------------------------------------------
 

Property Quiz

Eb-x65343
F -x87565
 

Verse:
G5 A5 F	Gm
C F Gm
C F Gm

Chorus:
G5 Bb5
	   Eb F Bb
And if his manhood...
Eb F G5 Bb5 C5 D5
Eb Bb F
Eb F Bb5 A5 G5
Eb F Bb

End:
	    Gm		 Am
Now you've found someone new

-------------------------------------------------------------

Chicken Wings

For all the verse chords play G--3-4 around the chord. Listen and 
you will understand what the fuck I'm talking about.

Intro: G Em C B Em

Verse:
G Em C B Em x2

Bridge:
C D G
C D Em
C D G
C   B Em

Chorus:
G C G C
C Em C D
C D Em

At the end of the second chorus hold to the C until:
				    D
Look he's got those chicken wings
		Em
He may as well die
--------------------------------
Yotam "Kurgan" Shkedy
yshkedy@ort.org.il
     
Добавлено: 12.10.2013
Другие материалы по этой песне:
  • Аккорды и текст

Страница создана 12.10.2013
http://primanota.ru/beautiful-south/painting-it-red-album-chords.htm
Привет, Гость.
Предлагаем пройти революционный курс по гитаре.
Подарок от PrimaNota.Ru, забирай!