PrimaNota.ru - самый крупный в мире бесплатный архив песенных текстов, аккордов, табулатур и нот


Beatsteaks - Everything Went Black - таба, видео

Регистрация Запомнить меня
Войти через:  Facebook Google Twitter Vk Yandex Mail.ru

Beatsteaks - Everything Went Black - таба, видео

Печатать
Просмотров: 39
Авторы музыки: Bernd Kurtzke, Torsten Scholz, Arnim Teutoburg-Weiß, Peter Baumann, Thomas Götz
Авторы текста: Bernd Kurtzke, Torsten Scholz, Arnim Teutoburg-Weiß, Walter Schreifels, Peter Baumann, Thomas Götz
-------------------------------------------------------------------------------
                   EVERYTHING WENT BLACK - Beatsteaks
-------------------------------------------------------------------------------
Tuning: Standard 

Chords:

G: 355433
Em: x79987
D: x57775

Intro/Chorus:

   G             Em            D            Em
e|-7-----7---8---7-----7---8---5-----5---7---7-----8-7-----------------------|
B|---8-------------8-------------7-------------8-------8---------------------|
G|-----7---7---7-----9---9---9-----7---7---7-----9-------9-------------------|
D|---------------------------------------------------------------------------|
A|---------------------------------------------------------------------------|
E|---------------------------------------------------------------------------|

Verse:

e|---------------------------------------------------------------------------|
B|---------------------------------------------------------------------------|
G|---------------------------------------------------------------------------|
D|-5-5----9-7-9------5--4-5-6-7-7--------------------------------------------|
A|-----7---------7-9--------------5--5-4-5--7-7-5--7-7-5---------------------|
E|---------------------------------------------------------------------------|

Bridge ("She caught an evil disease")

e|-------------------------------------------------------------------7--------|
B|--------------------------------------------------------------7--7---7-8----|
G|------------------------------------------------------------7---------------|
D|----------------4-------------4-5-------------------4/9---9-----------------|
A|-----------5-4-5----5-4-5-7---------4--2h4-5p4-2-1------9-------------------|
E|-12~-17\7-------------------------7-----------------------------------------|

e|---------------------------------------------------------------------------|
B|-5h7-8p7-5-----------------------------------------------------------------|
G|-----------7-6---4h6-7p6-4-3-----------------------------------------------|
D|---------------------------------------------------------------------------|
A|------------------------------0-5-4-2--------------------------------------|
E|---------------------------------------------------------------------------|

************************************

| /   slide up
| \   slide down
| h   hammer-on
| p   pull-off
| ~   vibrato
| x   Mute note

************************************
Добавлено: 25.06.2016
Другие материалы по этой песне:
  • Аккорды и текст

Страница создана 25.06.2016
http://primanota.ru/beatsteaks/everything-went-black-chords.htm
Привет, Гость.
Предлагаем пройти революционный курс по гитаре.
Подарок от PrimaNota.Ru, забирай!