PrimaNota.ru - самый крупный в мире бесплатный архив песенных текстов, аккордов, табулатур и нот


Beatles - Youre Gonna Loose That Girl - бас-таба, видео

Регистрация Запомнить меня
Войти через:  Facebook Google Twitter Vk Yandex Mail.ru

Beatles - Youre Gonna Loose That Girl - бас-таба, видео

Печатать
Просмотров: 205
beatles_you're_gonna_loose_that_girl

Basstab by Jan Bjorklund, Finland
 jani_bjorklund@yahoo.se>
You are welcome to request for basstabs!
Fingering and positions as suggested by TablEdit,
please use common sense!

TablEdited by Jan Bjorklund for Jim
Tuning : E A D G 	Time Signature: 4/4

     
|------------|--------------|------------|--------------|
|------------|2-2---2-2-1-0-|------------|--------------|
|2-2---2-2---|----2---------|4-4---4-4---|----4-----0-1-|
|----2-----2-|--------------|----4-----4-|2-2---4-4-----|
 
|------------|------------|--------------|------------|
|------------|2-2---2-2---|----1-1-1-----|------------|
|2-2---2-2---|----2-----2-|--------------|----4-----4-|
|----2-----2-|------------|4-4-------0-0-|2-2---2-2---|
   
|----------2-2-|------------|--------------|------------|
|------4-4-----|2-2---2-2---|----1-1-1-----|------------|
|2-2-----------|----2-----2-|--------------|----4-----4-|
|----2---------|------------|4-4-------0-0-|2-2---2-2---|
   
|--------------|------------|--------------|------------|
|----------0-1-|2-2---2-2---|--------------|------------|
|2-2---4-4-----|----2-----2-|4-4---2-2-0---|----4-----4-|
|----2---------|------------|----4-------4-|2-2---2-2---|
  
|----------2-2-|------------|--------------|------------|
|------4-4-----|2-2---2-2---|----1-1-1-----|------------|
|2-2-----------|----2-----2-|--------------|----4-----4-|
|----2---------|------------|4-4-------0-0-|2-2---2-2---|
   
|--------------|------------|--------------|------------|
|----------0-1-|2-2---2-2---|----1-1-1-4-4-|------------|
|2-2---4-4-----|----2-----2-|--------------|----4-----4-|
|----2---------|------------|4-4-----------|2-2---2-2---|
 
|--------------|------------|--------------|------------|
|------1-2-3-4-|2-2---2-2---|--------------|------------|
|2-2-----------|----2-----2-|4-4-------2-2-|----4-----4-|
|----2---------|------------|----4-4-4-----|2-2---2-2---|
 
     
|--------------|------------|--------------|----------------|
|--------------|------------|0-0-----------|----------------|
|2-2-------0-0-|----4-----4-|----0-3-3-2-0-|--------------2-|
|----2-2-2-----|2-2---2-2---|--------------|3-3-3-3-3-3-3---|
   
|------------|--------------|------------|----------------|
|------------|----0-0-0-3-3-|----0-----0-|--------------0-|
|3-3---3-3---|--------------|------------|----------------|
|----3-----3-|3-3-----------|3-3---3-3---|3-3-3-3-3-3-3---|

|----------------|----------------|------------|--------------|
|----------------|--------------1-|2-2---2-2---|----1-1-1-4-4-|
|3-3-3-3-3-3-3-3-|----------------|----2-----2-|--------------|
|----------------|1-1-1-1-1-1-1---|------------|4-4-----------|
  
|------------|--------------|------------|--------------|
|------------|----------0-1-|2-2---2-2---|----1-1-1-4-4-|
|----4-----4-|2-2---4-4-----|----2-----2-|--------------|
|2-2---2-2---|----2---------|------------|4-4-----------|
     
|------------|----------2-2-|------------|--------------|
|------------|------4-4-----|2-2---2-2---|--------------|
|----4-----4-|2-2-----------|----2-----2-|4-4-------2-2-|
|2-2---2-2---|----2---------|------------|----4-4-4-----|
  
|------------|--------------|------------|--------------|
|------------|--------------|------------|0-0---0-0-1-1-|
|----4-----4-|2-2-------0-0-|----4-----4-|----0---------|
|2-2---2-2---|----2-2-2-----|2-2---2-2---|--------------|

|------------||
|2-2---2-2---||
|----2-----2-||
|------------||
     


Created with TablEdit http://www.tabledit.com/


     
Добавлено: 15.11.2013
Другие материалы по этой песне:
  • Аккорды и текст

Страница создана 23.08.2013
http://primanota.ru/beatles/youre-gonna-loose-that-girl-chords.htm
Привет, Гость.
Предлагаем пройти революционный курс по гитаре.
Подарок от PrimaNota.Ru, забирай!