PrimaNota.ru - самый крупный в мире бесплатный архив песенных текстов, аккордов, табулатур и нот


Beatles - With The Beatles (album) - таба, видео

Регистрация Запомнить меня
Войти через:  Facebook Google Twitter Vk Yandex Mail.ru

Beatles - With The Beatles (album) - таба, видео

Печатать
Просмотров: 258
WITH THE BEATLES
ALBUM
1)	It won't be long
2)	All I've got to do
3)	All my loving
4)	Don't bother me
5)	Little child
6)	Till there was you
7)	Please mister postman
8)	Roll over Beethoven
9)	Hold me tight
10)	You've really got a hold on me
11)	I wanna be your man
12)	Devil in her heart
13)	Not a second time
14)	Money

--------------------------------------------------------------------------------------------------------------------------------------------------------------------------------------------------------------------------------------------------------------------------------------------------------------------------------------


It Won't Be Long


TABBED BY: The Beatles Central Team (jpgr_beatles@yahoo.com)
             

Intro:

            C#m
It won't be long Yeah (yeah) Yeah (yeah) Yeah
             E
It won't be long Yeah (yeah) Yeah (yeah) Yeah
            C#m                   A            E
It won't be long Yeah (yeah) till I belong to you

Fill 1: (Played Twice)

   E                           
E|---------------------------------|
B|---------------------------------|
G|---------------------------------|
D|---------2---1-------------------|
A|-----------------2/4-2-----------|
E|-0-----------------------3-------|
   ^       ^       ^       ^

Verse 1: 

A                 C             E 
Every night when everybody has fun (Fill 1)
A          C                 E 
Here I am sitting all on my own (Fill 1)

Fill 2: 

   E                           
E|---------------------------------|
B|---------------------------------|
G|---------------------------------|
D|---------2---1-------------------|
A|-----------------2/4-2-------2---|
E|-0-----------------------4-------|
   ^       ^       ^       ^

Chorus:

            C#m
It won't be long Yeah (yeah) Yeah (yeah) Yeah
             E
It won't be long Yeah (yeah) Yeah (yeah) Yeah
            C#m                   A            E
It won't be long Yeah (yeah) till I belong to you (Fill 1 two times)


Bridge:

           E        D# 
Since you left me  I'm so alone  
            D              C#7
Now you're coming  you're coming on home
 A                   B7
I'll be good like I know I should
              F#m7                 B7
You're coming home  you're coming home


Verse 2:

A                 C                      E 
Every night the tears come down from my eyes (Fill 1)
A          C                     E 
Every day I've done nothing but cry (Fill 1) (Fill2)


Chorus:

            C#m
It won't be long Yeah (yeah) Yeah (yeah) Yeah
             E
It won't be long Yeah (yeah) Yeah (yeah) Yeah
            C#m                   A            E
It won't be long Yeah (yeah) till I belong to you (Fill 1 two times)


Bridge:

           E        D# 
Since you left me  I'm so alone  
            D              C#7
Now you're coming  you're coming on home
 A                   B7
I'll be good like I know I should
              F#m7                 B7
You're coming home  you're coming home


Verse 3:

A          C                E 
Every day we'll be happy I know (Fill 1)
A                C                     E 
Now I know that you won't leave me no more (Fill 1) (Fill2)


Chorus:

            C#m
It won't be long Yeah (yeah) Yeah (yeah) Yeah
             E
It won't be long Yeah (yeah) Yeah (yeah) Yeah
            C#m                   A              
It won't be long Yeah (yeah) till I belong to you
G    F#7    Fmaj7    Emaj7 
                     Woooo

-==========================================================================================================================================================================================================================



     All I've Got To Do     Lennon / McCartney

Sent by Igor Travenec, travenec@savba.sk}


1. Whenever [Ami]I want you a[C]round, yeah, 
All I gotta [Ami]do, is [Dmi]call you on the phone,
[Dmi7]And you'll come running home, 
[Fmi]Yeah that's all I [C]gotta do.

2. And when I, I wanna kiss you yeah, 
All I gotta do is whisper in your ear 
the words you want to hear,
And I'll be kissing you.

{Middle:}
     And the same goes for [F]me, whenever you want me at all,
     I'll be [Ami]here, yes I will, whenever you call,
     You [F]just gotta call on [C]me, [Ami]yeah,
     You [F]just gotta call on [C]me.

3. And when I, I wanna kiss you, yeah,
All I wanna do is call you on the phone,
and you'll come running home,
Yeah that's all I gotta do.



ALL MY LOVING- The Beatles

            F#m           B7
Close your eyes and I'll kiss you
   E           C#m
Tomorrow I'll miss you
    A           F#m       D   B7
Remember I'll always be true
           F#m        B7
And then while I'm away
            E          C#m
I'll write home every day
           A           B7        E
And I'll send all my loving to you

I'll pretend that I'm kissing 
the lips I am missing
And hope that my dreams will come true
And then while I'm away
I'll write home every day
And I'll send all my loving to you

CHORUS:
         C#m   C+             E
All my loving I will send to you
          C#m    C+             E
All my loving, darling I'll be true

VERSE ONE, CHORUS

         C#m            E
All my loving, all my loving ...

C+: x 3 2 1 1 0

====================================================================================================================================================================================================================================================


Don't Bother Me

TABBED BY: The Beatles Central Team (jpgr_beatles@yahoo.com)


Intro:

   D
E|---------------------------------|--------------------------------
B|---------------------------------|--------------------------------
G|---------------------------------|--------------------------------
D|-0---------------4---------------|-2---------------0--------------
A|---------------------------------|--------------------------------
E|---------------------------------|--------------------------------
   ^       ^       ^       ^         ^       ^       ^       ^                   

Verse:
Em
          Since she's been gone
B7           A7            G7
I want no one to talk to me
Em               B7               A7
It's not the same but I'm to blame
      D        G        
It's plain to see       So go away
Em                 A                 
And leave me alone   Don't bother me 
Em
                I can't believe      
B7                  A7            G7
That she would leave  me on my own
Em                 B7                A7
It's just not right where every night
     D       G        
I'm all alone       I've got no time
Em                A                 
For you right now   Don't bother me 

Bridge:
Em           D               Em
I know I'll never be the same
            D                Em
If I don't get her back again
           Bm                Am
Because I know she'll always be
     C            Em
The only girl for me    But till she's here

Verse:
B7                    A7           G7
Please don't come near  Just stay away
E7               B7                   A7
I'll let you know when she's come home
    D      G
Till that day
                 Em             A              Em                         
Don't come around leave me alone dont bother me

Solo:
                                     B7
E|-7-------------------------------|--------------------------------
B|-8-------------------------------|---------------------4----------
G|-9---------------0---2-------2---|-/4------4------0h4-------------
D|-9-------2-----------------------|--------------------------------
A|-7-------------------------------|--------------------------------
E|---------------------------------|--------------------------------
   ^       ^       ^       ^         ^       ^       ^       ^      
   A7                                G7
E|---------3---5---5b7-5---3-------|--------------------------------
B|-----5---------------------------|-----5-------5---5--3h5--3------
G|---------------------------------|--------------------------------
D|---------------------------------|--------------------------------
A|---------------------------------|--------------------------------
E|---------------------------------|--------------------------------
   ^       ^       ^       ^         ^       ^       ^       ^    
   E7                                B7
E|---------------------------------|--------------------------------
B|---------------------------------|---------------------3------3---
G|-4---------------0---2-------2---|-/4------4---2---4--------------
D|-------------2-------------------|--------------------------------
A|---------------------------------|--------------------------------
E|---------------------------------|--------------------------------
   ^       ^       ^       ^         ^       ^       ^       ^    
   A7              D                 G 
E|---------------------------------|--------------------------------
B|-3/5-----5-------5p3-------------|--------------------------------
G|---------------------4-------2---|-4-------4-------4\2------------
D|---------------------------------|-------------------------5-----2
A|---------------------------------|--------------------------------
E|---------------------------------|--------------------------------
   ^       ^       ^       ^         ^       ^       ^       ^    

Verse:
G
                   I've got no time
Em                A                 
For you right now   Don't bother me 

Bridge:
Em           D               Em
I know I'll never be the same
            D                Em
If I don't get her back again
           Bm                Am
Because I know she'll always be
     C            Em
The only girl for me    But till she's here

Verse:
B7                    A7           G7
Please don't come near  Just stay away
E7               B7                   A7
I'll let you know when she's come home
    D      G
Till that day
                 Em             A              Em                         
Don't come around leave me alone dont bother me

Coda:
A              Em
Don't bother me
A              Em
Don't bother me
A              Em
Don't bother me
A              Em
Don't bother me

====================================================================================================================================================================================================================================================


Little Child

TABBED BY: The Beatles Central Team (jpgr_beatles@yahoo.com)


Intro:

E7
                                                                                   Little Child

Chorus 1:

E7                                          
                                   Little Child                               Little Child
 E7                         A                       E7
           Won't you dance with me?                                            I'm
B7                                                   A
                                    so sad and lonely
F#7                                                  B7
Baby take a chance with me                                         Little Child
                              

Chorus 2:

E7                                          
                                   Little Child                               Little Child
 E7                         A                        E7
           Won't you dance with me?                                            I'm
B7                                                   A
                                    so sad and lonely
F#7              B7                    E                                
Baby take a chance with me                                                 If you

Verse 1:

E                                         B7
want someone to make you feel so fine      Then we'll
E                                           
have some fun when you're mine, all mine     So come
F#7                         B7
on, come on, come on                               Little Child

Chorus 3:

E7                                          
                                   Little Child                               Little Child
 E7                         A                       E7
           Won't you dance with me?                                            I'm
B7                                                   A
                                    so sad and lonely
F#7               B7                              E 
Baby take a chance with me                          

Instrumental:

E7

A                                                    E7

B7                        A                       F#7                     B7
                                                                                 When you're

Verse 1:

E                                         B7
by my side you're the only one                    Don't you
E                                           
run and hide     Just come on come on           So come
F#7                         B7
on, come on, come on                               Little Child

Chorus 3:

E7                                          
                                   Little Child                               Little Child
 E7                         A                       E7
           Won't you dance with me?                                            I'm
B7                                                   A
                                    so sad and lonely
F#7               B7                              E                      C#7
Baby take a chance with me                       oh yeah
F#7               B7                              E                      C#7 
Baby take a chance with me                       oh yeah
F#7               B7                              E                      C#7
Baby take a chance with me                       oh yeah

====================================================================================================================================================================================================================================================




TILL THERE WAS YOU

From: prusso@dsna12.na.infn.it (Guido Russo)

Intro

-1-----|-----------|-------|------
---1---|-----------|-3-----|------
-----2-|-----------|---3---|------
-------|-4---------|-----5-|------
-------|-----------|-------|-3----
-------|-----------|-------|------
 F       B7/9- (1)   Gm      C7/9

            F          B7/9- (1)
There were bells on a hill
       Gm               Bbm
But I never heard them ringing
      F     Am     G#m   Gm  C7/9
No I never heard them at all
                 F Gm C7/9
Till there was you

            F             B7/9- (1)
There were birds in the sky
       Gm             Bbm
But I never saw them winging
      F     Am   G#m   Gm  C7/9
No I never saw them at all
                 F B7/9- (2)
Till there was you

                Bb   Bbm                F
Then there was music     and wonderful roses
     D              Gm  Gm7+           G7         C7 (2)    C7/5+
They   tell me in sweet      fragrant meadows of dawn and you

           F         B7/9- (1)
There was love all around
       Gm             Bbm
But I never heard it singing
      F     Am   G#m   Gm  C7/9
No I never heard it at all
                 F Gm C7/9
Till there was you


Then the solo. It's played by two guitars, so I tried to merge the lines

-----|---1-----|---------|-----------|---------|---3-5-3-|-5-3-5-3-|
-----|-1---3-1-|---------|-----1-4---|-3-1-----|---3-3-3-|-3-3-3-3-|
-2-3-|---------|-3-2-0---|---2-------|-----3-2-|-3-3-3-3-|-3-3-3-3-|
-----|---------|-------3-|-4---------|---------|---------|---------|
-----|---------|---------|-----------|---------|---------|---------|
-----|---------|---------|-----------|---------|---------|---------|
       F                   B7/9- (1)             Gm

---6-8-6-|-8-6-8-6-|-- -10-|-8--7---|-6--|-5----|-1-1---|-----|
---6-6-6-|-6-6-6-6-|-- -10-|-5--4---|-3--|-5----|-----1-|-----|
-6-6-6-6-|-6-6-6-6-|-- -10-|-5--4---|-3--|-3----|-------|-2---|
---------|---------|-10-- -|-7--6---|-5--|-5----|-------|-----|
---------|---------|-------|--------|----|-3----|-------|---0-|
---------|---------|-------|--------|----|-3----|-------|-----|
 Bbm                 F       Am G#m   Gm   C7/6   F

-----------|-----1-
-----------|---1---
-----------|-2-----
---1-4-----|-------
-3---------|-------
-----------|-------
 B7/9- (2)   Then there was

 Bb   Bbm                F
music     and wonderful roses
     D              Gm  Gm7+           G7         C7 (2)    C7/5+
They   tell me in sweet      fragrant meadows of dawn and you

           F         B7/9- (1)
There was love all around
       Gm             Bbm
But I never heard it singing
      F     Am   G#m   Gm  C7/9
No I never heard it at all
                 F
Till there was you

 C E C7 (1)             F   C#  F     F7+
Tiiiiiill   there was youuuuuuuuuuuuu


1|111111|  2|111111|   3|-0----|   3|111111|  |======|  6|111111|
 |---2--|   |-2----|    |--1-2-|    |------|  |------|   |------|
 |-34---|   |--3-4-|    |---3-4|    |-34---|  |--1---|   |-34---|
 |------|   |------|    |------|    |------|  |-2-34-|   |------|
    F       B7/9- (1)   B7/9- (2)      Gm       C7/9        Bbm

5|111111|  4|111111|  6|111111|  2|111111|  3|111111|  3|111111|
 |------|   |------|   |---2--|   |----2-|   |--2---|   |---2--|
 |-34---|   |-34---|   |-34---|   |--3---|   |-3----|   |-3----|
 |------|   |------|   |------|   |-4----|   |------|   |----4-|
    Am        G#m         Bb          D        Gm7+        G7

|======|  3|111111|  |======|  |======|  4|111111|  |======|
|----1-|   |------|  |----1-|  |---1--|   |------|  |----1-|
|--2---|   |--3-4-|  |--2---|  |-23---|   |--234-|  |---2--|
|-3-4--|   |------|  |-3----|  |------|   |------|  |-34---|
 C7 (1)     C7 (2)       C         E         C#        F7+


Comments and suggestions are welcome...Have a good time!

====================================================================================================================================================================================================================================================


Please Mister Postman (Holland)


Lyrics 

Intro
-----   
A
(Wait!) Oh yeah, wait a minute mister postman
F#m
(Wait!) Waa--aa-aaaaa----ait   mister postman

Chorus
------
A
Mister postman look and see (oh yeah)
F#m
Is there  a letter in your bag for me? (Please, please, mr postman)
D
I've been waiting such a long time (woah yeah)
E
Since I heard from that girlfriend of mine

Verse 1
-------
A
There must be some word today 
F#m
>From my girlfriend so far away
D
Please Mr. Postman look and see
E
If there's a letter, a letter for me

Verse 2 (do you see a chord pattern emerging?....)
-------
I've been standing waiting mister postman
So  -   ooo --o ooo  so patiently
For just a card or just a letter
Saying she's returning home to me

Chorus
Verse 3
-------
So many days you pass me by
You saw the tear standing in my eye
You wouldn't stop to make me feel better
By leaving me a card or a letter

Chorus

Outro
You better wait a minute, wait a minute (oh yeah)
Wait a minute, wait a minute (You gotta)
Wait a minute, wait a minute
Check it and see one more time for me (You gotta)

Wait a minute, wait a minute (oh yeah)
Wait a minute, wait a minute (oh yeah)
Mister po-oo---ooo--stman, 
Deliver the de letter the sooner the better

Wait a minute, wait a minute etc.....

 

====================================================================================================================================================================================================================================================

Roll Over Beethoven
Chuck Berry

E
I'm gonna write a little letter,
E
Gonna mail it to my local DJ.
       A
It's a rockin' rhythm record
                    E
I want my jockey to play.
     B                                       E
Roll over Beethoven, I gotta hear it again today.

You know, my temperature's risin'
And the jukebox blows a fuse.
My heart's beatin' rhythm
And my soul keeps on singin' the blues.
Roll over Beethoven and tell Tchaikovsky the news.

I got the rockin' pneumonia,
I need a shot of rhythm and blues.
I think I'm rollin' arthritis
Sittin' down by the rhythm review.
Roll over Beethoven rockin' in two by two.


BRIDGE
E
well, if you feel you like it
E
go get your lover, then reel and rock it.
E                A
roll it over and move on up just
A                    E
a trifle further and reel and rock it, roll it over,
E    B
roll over Beethoven rockin' in two by two.


Well, early in the mornin' I'm a-givin' you a warnin'
Don't you step on my blue suede shoes.
Hey diddle diddle, I am playin' my fiddle,
Ain't got nothin' to lose.
Roll over Beethoven and tell Tchaikovsky the news.

You know she wiggles like a glow worm,
Dance like a spinnin' top.
She got a crazy partner,
Oughta see 'em reel and rock.
Long as she got a dime the music will never stop.

Roll over Beethoven,
Roll over Beethoven,
Roll over Beethoven,
Roll over Beethoven,
Roll over Beethoven and dig these rhythm and blues.



Hold Me Tight

TABBED BY: The Beatles Central Team (jpgr_beatles@yahoo.com)
      
       
Intro:

   F                                C7
                                 It feels alright now
E|---------------------------------|--------------------------------
B|---------------------------------|--------------------------------
G|---------------------------------|--------------------------------
D|---------------------------------|-2-------2-------2-------2------
A|-----------------3---3-----------|-3-------3-------3-------3------
E|-1---1---4---5-----------5---1---|--------------------------------
   ^       ^       ^       ^         ^       ^       ^       ^


Verse 1:

   F                                Bb7
   Hold me tight       
E|---------------------------------|--------------------------------
B|---------------------------------|--------------------------------
G|---------------------------------|--------------------------------
D|---------------------------------|-----------------6---6----------
A|-----------------3---3-----------|---------4---5---8---8---5------
E|-1---1---4---5-----------5---1---|-/6--6-----------------------1--
   ^       ^       ^       ^         ^       ^       ^       ^
   G7                               C7
   Tell me I'm the                  only one, and 
E|---------------------------------|--------------------------------
B|---------------------------------|--------------------------------
G|---------------------------------|-----------------3---3----------
D|---------------------------------|---------1---2---5---5---5------
A|---------1---2---5---5---1---2---|-3---3-----------------------3--
E|-/3--3---------------------------|--------------------------------
   ^       ^       ^       ^         ^       ^       ^       ^
   F                                Bb7
   then, I might
E|---------------------------------|--------------------------------
B|---------------------------------|--------------------------------
G|---------------------------------|--------------------------------
D|---------------------------------|-----------------6---6----------
A|-----------------3---3-----------|---------4---5---8---8---5------
E|-1---1---4---5-----------5---1---|-/6--6-----------------------1--
   ^       ^       ^       ^         ^       ^       ^       ^
   G7                               C7
   Never be the                     lonely one, so
E|---------------------------------|--------------------------------
B|---------------------------------|--------------------------------
G|---------------------------------|-----------------3---3----------
D|---------------------------------|---------1---2---5---5---5------
A|---------1---2---5---5---1---2---|-3---3-----------------------3--
E|-/3--3---------------------------|--------------------------------
   ^       ^       ^       ^         ^       ^       ^       ^
   F                                F7
   Hold me tight                                            tonight
E|---------------------------------|--------------------------------
B|---------------------------------|--------------------------------
G|---------------------------------|--------------------------------
D|---------------------------------|---------------------------------
A|-----------------3---3-----------|-----------------3---3----------
E|-1---1---4---5-----------4---5---|-1---1---4---5-----------4---5--
   ^       ^       ^       ^         ^       ^       ^       ^
   Bb                               Bbm
                           tonight                             It's
E|---------------------------------|--------------------------------
B|---------------------------------|--------------------------------
G|---------------------------------|--------------------------------
D|-3---3---3---3---3---3---3---3---|-3---3---3---3---3---3---3---3--
A|-1---1---1---1---1---1---1---1---|-1---1---1---1---1---1---1---1--
E|---------------------------------|--------------------------------
   ^       ^       ^       ^         ^       ^       ^       ^
   F                                Bbm
   you                                                      You you
E|---------------------------------|--------------------------------
B|---------------------------------|--------------------------------
G|---------------------------------|--------------------------------
D|---------------------------------|-3---3---3---3---3---3---3---3--
A|-----------------3---3-----------|-1---1---1---1---1---1---1---1--
E|-1---1---4---5-----------4---5---|--------------------------------
   ^       ^       ^       ^         ^       ^       ^       ^
   F                                C7
   you                  ooh-ooh-ooh-ooh
E|---------------------------------|--------------------------------
B|---------------------------------|--------------------------------
G|---------------------------------|--------------------------------
D|---------------------------------|-5---5-----------5---X---7---X--
A|-----------------3---3-----------|-3---3---6---7------------------
E|-1---1---4---5-----------5---1---|--------------------------------
   ^       ^       ^       ^         ^       ^       ^       ^


Verse 2:

   F                                Bb7
   Hold me tight       
E|---------------------------------|--------------------------------
B|---------------------------------|--------------------------------
G|---------------------------------|--------------------------------
D|---------------------------------|-----------------6---6----------
A|-----------------3---3-----------|---------4---5---8---8---5------
E|-1---1---4---5-----------5---1---|-/6--6-----------------------1--
   ^       ^       ^       ^         ^       ^       ^       ^
   G7                               C7
   Let me go on                     loving you  To-
E|---------------------------------|--------------------------------
B|---------------------------------|--------------------------------
G|---------------------------------|-----------------3---3----------
D|---------------------------------|---------1---2---5---5---5------
A|---------1---2---5---5---1---2---|-3---3-----------------------3--
E|-/3--3---------------------------|--------------------------------
   ^       ^       ^       ^         ^       ^       ^       ^
   F                                Bb7
   night,  tonight
E|---------------------------------|--------------------------------
B|---------------------------------|--------------------------------
G|---------------------------------|--------------------------------
D|---------------------------------|-----------------6---6----------
A|-----------------3---3-----------|---------4---5---8---8---5------
E|-1---1---4---5-----------5---1---|-/6--6-----------------------1--
   ^       ^       ^       ^         ^       ^       ^       ^
   G7                               C7
   Making love to                   only you, so
E|---------------------------------|--------------------------------
B|---------------------------------|--------------------------------
G|---------------------------------|-----------------3---3----------
D|---------------------------------|---------1---2---5---5---5------
A|---------1---2---5---5---1---2---|-3---3-----------------------3--
E|-/3--3---------------------------|--------------------------------
   ^       ^       ^       ^         ^       ^       ^       ^
   F                                F7
   Hold me tight                                            tonight
E|---------------------------------|--------------------------------
B|---------------------------------|--------------------------------
G|---------------------------------|--------------------------------
D|---------------------------------|---------------------------------
A|-----------------3---3-----------|-----------------3---3----------
E|-1---1---4---5-----------4---5---|-1---1---4---5-----------4---5--
   ^       ^       ^       ^         ^       ^       ^       ^
   Bb                               Bbm
                           tonight                             It's
E|---------------------------------|--------------------------------
B|---------------------------------|--------------------------------
G|---------------------------------|--------------------------------
D|-3---3---3---3---3---3---3---3---|-3---3---3---3---3---3---3---3--
A|-1---1---1---1---1---1---1---1---|-1---1---1---1---1---1---1---1--
E|---------------------------------|--------------------------------
   ^       ^       ^       ^         ^       ^       ^       ^
   F                                Bbm
   you                                                      You you
E|---------------------------------|--------------------------------
B|---------------------------------|--------------------------------
G|---------------------------------|--------------------------------
D|---------------------------------|-3---3---3---3---3---3---3---3--
A|-----------------3---3-----------|-1---1---1---1---1---1---1---1--
E|-1---1---4---5-----------4---5---|--------------------------------
   ^       ^       ^       ^         ^       ^       ^       ^
   F                                C7
   you                  ooh-ooh-ooh-ooh                       Don't
E|---------------------------------|--------------------------------
B|---------------------------------|--------------------------------
G|---------------------------------|--------------------------------
D|---------------------------------|--------------------------------
A|-----------------3---3-----------|---------2---3---6-------3------
E|-1---1---4---5-----------5---1---|-4---4---------------4------X---
   ^       ^       ^       ^         ^       ^       ^       ^


Bridge:
   F                                Ab7
   know,                            what it means to 
E|---------------------------------|--------------------------------
B|---------------------------------|--------------------------------
G|---------------------------------|--------------------------------
D|---------------------------------|-----------------4---4----------
A|-----------------3---3-----------|---------2---3---6---6---6---3--
E|-1---1---4---5-----------5---1---|-4---4--------------------------
   ^       ^       ^       ^         ^       ^       ^       ^  
   F                                Bb7
   hold you tight                   Being here 
E|---------------------------------|--------------------------------
B|---------------------------------|--------------------------------
G|---------------------------------|--------------------------------
D|---------------------------------|-----------------6---6----------
A|-----------------3---3-----------|---------4---5---8---8---8---5--
E|-1---1---4---5-----------5---1---|-/6--6--------------------------
   ^       ^       ^       ^         ^       ^       ^       ^
   Gm                               G7
   alone tonight with you                                         It                                                          
E|---------------------------------|--------------------------------
B|---------------------------------|--------------------------------
G|---------------------------------|--------------------------------
D|-5---5-------5---5---5-------5---|-5---5-----------5---5---5---5--
A|-5---5-------5---5---5-------5---|-5---5-----------5---5---5---5--
E|---------------------------------|---------6---7------------------
   ^       ^       ^       ^         ^       ^       ^       ^
   C7
   feels alright now
E|---------------------------------|
B|---------------------------------|
G|---------------------------------|
D|-5---5-----------5---5-----------|
A|-3---3---6---7-----------7---3---|
E|---------------------------------|
   ^       ^       ^       ^         


Verse 3:

   F                                Bb7
   Hold me tight       
E|---------------------------------|--------------------------------
B|---------------------------------|--------------------------------
G|---------------------------------|--------------------------------
D|---------------------------------|-----------------6---6----------
A|-----------------3---3-----------|---------4---5---8---8---5------
E|-1---1---4---5-----------5---1---|-/6--6-----------------------1--
   ^       ^       ^       ^         ^       ^       ^       ^
   G7                               C7
   Tell me I'm the                  only one, and 
E|---------------------------------|--------------------------------
B|---------------------------------|--------------------------------
G|---------------------------------|-----------------3---3----------
D|---------------------------------|---------1---2---5---5---5------
A|---------1---2---5---5---1---2---|-3---3-----------------------3--
E|-/3--3---------------------------|--------------------------------
   ^       ^       ^       ^         ^       ^       ^       ^
   F                                Bb7
   then, I might
E|---------------------------------|--------------------------------
B|---------------------------------|--------------------------------
G|---------------------------------|--------------------------------
D|---------------------------------|-----------------6---6----------
A|-----------------3---3-----------|---------4---5---8---8---5------
E|-1---1---4---5-----------5---1---|-/6--6-----------------------1--
   ^       ^       ^       ^         ^       ^       ^       ^
   G7                               C7
   Never be the                     lonely one, so
E|---------------------------------|--------------------------------
B|---------------------------------|--------------------------------
G|---------------------------------|-----------------3---3----------
D|---------------------------------|---------1---2---5---5---5------
A|---------1---2---5---5---1---2---|-3---3-----------------------3--
E|-/3--3---------------------------|--------------------------------
   ^       ^       ^       ^         ^       ^       ^       ^
   F                                F7
   Hold me tight                                            tonight
E|---------------------------------|--------------------------------
B|---------------------------------|--------------------------------
G|---------------------------------|--------------------------------
D|---------------------------------|---------------------------------
A|-----------------3---3-----------|-----------------3---3----------
E|-1---1---4---5-----------4---5---|-1---1---4---5-----------4---5--
   ^       ^       ^       ^         ^       ^       ^       ^
   Bb                               Bbm
                           tonight                             It's
E|---------------------------------|--------------------------------
B|---------------------------------|--------------------------------
G|---------------------------------|--------------------------------
D|-3---3---3---3---3---3---3---3---|-3---3---3---3---3---3---3---3--
A|-1---1---1---1---1---1---1---1---|-1---1---1---1---1---1---1---1--
E|---------------------------------|--------------------------------
   ^       ^       ^       ^         ^       ^       ^       ^
   F                                Bbm
   you                                                      You you
E|---------------------------------|--------------------------------
B|---------------------------------|--------------------------------
G|---------------------------------|--------------------------------
D|---------------------------------|-3---3---3---3---3---3---3---3--
A|-----------------3---3-----------|-1---1---1---1---1---1---1---1--
E|-1---1---4---5-----------4---5---|--------------------------------
   ^       ^       ^       ^         ^       ^       ^       ^
   F                                C7
   you                  ooh-ooh-ooh-ooh
E|---------------------------------|--------------------------------
B|---------------------------------|--------------------------------
G|---------------------------------|--------------------------------
D|---------------------------------|-5---5-----------5---X---7---X--
A|-----------------3---3-----------|-3---3---6---7------------------
E|-1---1---4---5-----------5---1---|--------------------------------
   ^       ^       ^       ^         ^       ^       ^       ^


Verse 4:

   F                                Bb7
   Hold me tight       
E|---------------------------------|--------------------------------
B|---------------------------------|--------------------------------
G|---------------------------------|--------------------------------
D|---------------------------------|-----------------6---6----------
A|-----------------3---3-----------|---------4---5---8---8---5------
E|-1---1---4---5-----------5---1---|-/6--6-----------------------1--
   ^       ^       ^       ^         ^       ^       ^       ^
   G7                               C7
   Let me go on                     loving you  To-
E|---------------------------------|--------------------------------
B|---------------------------------|--------------------------------
G|---------------------------------|-----------------3---3----------
D|---------------------------------|---------1---2---5---5---5------
A|---------1---2---5---5---1---2---|-3---3-----------------------3--
E|-/3--3---------------------------|--------------------------------
   ^       ^       ^       ^         ^       ^       ^       ^
   F                                Bb7
   night,  tonight
E|---------------------------------|--------------------------------
B|---------------------------------|--------------------------------
G|---------------------------------|--------------------------------
D|---------------------------------|-----------------6---6----------
A|-----------------3---3-----------|---------4---5---8---8---5------
E|-1---1---4---5-----------5---1---|-/6--6-----------------------1--
   ^       ^       ^       ^         ^       ^       ^       ^
   G7                               C7
   Making love to                   only you, so
E|---------------------------------|--------------------------------
B|---------------------------------|--------------------------------
G|---------------------------------|-----------------3---3----------
D|---------------------------------|---------1---2---5---5---5------
A|---------1---2---5---5---1---2---|-3---3-----------------------3--
E|-/3--3---------------------------|--------------------------------
   ^       ^       ^       ^         ^       ^       ^       ^
   F                                F7
   Hold me tight                                            tonight
E|---------------------------------|--------------------------------
B|---------------------------------|--------------------------------
G|---------------------------------|--------------------------------
D|---------------------------------|---------------------------------
A|-----------------3---3-----------|-----------------3---3----------
E|-1---1---4---5-----------4---5---|-1---1---4---5-----------4---5--
   ^       ^       ^       ^         ^       ^       ^       ^
   Bb                               Bbm
                           tonight                             It's
E|---------------------------------|--------------------------------
B|---------------------------------|--------------------------------
G|---------------------------------|--------------------------------
D|-3---3---3---3---3---3---3---3---|-3---3---3---3---3---3---3---3--
A|-1---1---1---1---1---1---1---1---|-1---1---1---1---1---1---1---1--
E|---------------------------------|--------------------------------
   ^       ^       ^       ^         ^       ^       ^       ^
   F                                Bbm
   you                                                      You you
E|---------------------------------|--------------------------------
B|---------------------------------|--------------------------------
G|---------------------------------|--------------------------------
D|---------------------------------|-3---3---3---3---3---3---3---3--
A|-----------------3---3-----------|-1---1---1---1---1---1---1---1--
E|-1---1---4---5-----------4---5---|--------------------------------
   ^       ^       ^       ^         ^       ^       ^       ^
   F                                C7
   you                  ooh-ooh-ooh-ooh                       Don't
E|---------------------------------|--------------------------------
B|---------------------------------|--------------------------------
G|---------------------------------|--------------------------------
D|---------------------------------|--------------------------------
A|-----------------3---3-----------|---------2---3---6-------3------
E|-1---1---4---5-----------5---1---|-4---4---------------4------X---
   ^       ^       ^       ^         ^       ^       ^       ^


Bridge:
   F                                Ab7
   know,                            what it means to 
E|---------------------------------|--------------------------------
B|---------------------------------|--------------------------------
G|---------------------------------|--------------------------------
D|---------------------------------|-----------------4---4----------
A|-----------------3---3-----------|---------2---3---6---6---6---3--
E|-1---1---4---5-----------5---1---|-4---4--------------------------
   ^       ^       ^       ^         ^       ^       ^       ^  
   F                                Bb7
   hold you tight                   Being here 
E|---------------------------------|--------------------------------
B|---------------------------------|--------------------------------
G|---------------------------------|--------------------------------
D|---------------------------------|-----------------6---6----------
A|-----------------3---3-----------|---------4---5---8---8---8---5--
E|-1---1---4---5-----------5---1---|-/6--6--------------------------
   ^       ^       ^       ^         ^       ^       ^       ^
   Gm                               G7
   alone tonight with you                                         It                                                          
E|---------------------------------|--------------------------------
B|---------------------------------|--------------------------------
G|---------------------------------|--------------------------------
D|-5---5-------5---5---5-------5---|-5---5-----------5---5---5---5--
A|-5---5-------5---5---5-------5---|-5---5-----------5---5---5---5--
E|---------------------------------|---------6---7------------------
   ^       ^       ^       ^         ^       ^       ^       ^
   C7
   feels alright now
E|---------------------------------|
B|---------------------------------|
G|---------------------------------|
D|-5---5-----------5---5-----------|
A|-3---3---6---7-----------7---3---|
E|---------------------------------|
   ^       ^       ^       ^    


Verse 5:

   F                                Bb7
   Hold me tight       
E|---------------------------------|--------------------------------
B|---------------------------------|--------------------------------
G|---------------------------------|--------------------------------
D|---------------------------------|-----------------6---6----------
A|-----------------3---3-----------|---------4---5---8---8---5------
E|-1---1---4---5-----------5---1---|-/6--6-----------------------1--
   ^       ^       ^       ^         ^       ^       ^       ^
   G7                               C7
   Tell me I'm the                  only one, and 
E|---------------------------------|--------------------------------
B|---------------------------------|--------------------------------
G|---------------------------------|-----------------3---3----------
D|---------------------------------|---------1---2---5---5---5------
A|---------1---2---5---5---1---2---|-3---3-----------------------3--
E|-/3--3---------------------------|--------------------------------
   ^       ^       ^       ^         ^       ^       ^       ^
   F                                Bb7
   then, I might
E|---------------------------------|--------------------------------
B|---------------------------------|--------------------------------
G|---------------------------------|--------------------------------
D|---------------------------------|-----------------6---6----------
A|-----------------3---3-----------|---------4---5---8---8---5------
E|-1---1---4---5-----------5---1---|-/6--6-----------------------1--
   ^       ^       ^       ^         ^       ^       ^       ^
   G7                               C7
   Never be the                     lonely one, so
E|---------------------------------|--------------------------------
B|---------------------------------|--------------------------------
G|---------------------------------|-----------------3---3----------
D|---------------------------------|---------1---2---5---5---5------
A|---------1---2---5---5---1---2---|-3---3-----------------------3--
E|-/3--3---------------------------|--------------------------------
   ^       ^       ^       ^         ^       ^       ^       ^
   F                                F7
   Hold me tight                                            tonight
E|---------------------------------|--------------------------------
B|---------------------------------|--------------------------------
G|---------------------------------|--------------------------------
D|---------------------------------|---------------------------------
A|-----------------3---3-----------|-----------------3---3----------
E|-1---1---4---5-----------4---5---|-1---1---4---5-----------4---5--
   ^       ^       ^       ^         ^       ^       ^       ^
   Bb                               Bbm
                           tonight                             It's
E|---------------------------------|--------------------------------
B|---------------------------------|--------------------------------
G|---------------------------------|--------------------------------
D|-3---3---3---3---3---3---3---3---|-3---3---3---3---3---3---3---3--
A|-1---1---1---1---1---1---1---1---|-1---1---1---1---1---1---1---1--
E|---------------------------------|--------------------------------
   ^       ^       ^       ^         ^       ^       ^       ^
   F                                Bbm
   you                                                      You you
E|---------------------------------|--------------------------------
B|---------------------------------|--------------------------------
G|---------------------------------|--------------------------------
D|---------------------------------|-3---3---3---3---3---3---3---3--
A|-----------------3---3-----------|-1---1---1---1---1---1---1---1--
E|-1---1---4---5-----------4---5---|--------------------------------
   ^       ^       ^       ^         ^       ^       ^       ^
   F                                Ab
   you                  ooh-ooh-ooh-ooh                         ooh
E|---------------------------------|--------------------------------
B|---------------------------------|--------------------------------
G|---------------------------------|--------------------------------
D|---------------------------------|--------------------------------
A|-----------------3---3-----------|---------2---3---6---6---3------
E|-1---1---4---5-----------5---1---|-4---4-----------------------4--
   ^       ^       ^       ^         ^       ^       ^       ^
   F                                Ab
   ooh                              You                         ooh
E|---------------------------------|--------------------------------
B|---------------------------------|--------------------------------
G|---------------------------------|--------------------------------
D|---------------------------------|--------------------------------
A|-----------------3---3-----------|---------2---3---6---6---3------
E|-1---1---4---5-----------5---1---|-4---4-----------------------4--
   ^       ^       ^       ^         ^       ^       ^       ^
   F
   ooh
E|---------------------------------|
B|---------------------------------|
G|---------------------------------|
D|---------------------------------|
A|-3-------------------------------|
E|-1-------------------------------|
   ^       ^       ^       ^       
  
===================================================================================================================================================================================================================================================

You Really Got a Hold On Me




Here there is my rendition of the classic tune by Smokey Robinson.
A curiosity: both of my sources (besides having wrong chords, or at least
different from what I heard and wrote) say in last verse "I want to split
now". I hear "I want to spit now". Who's right?

Share&enjoy, .mau.

(disclaimer: I wrote chords as I heard them - they are not necessarily
correct, and they are definitely not copied from any published source).


                       A                  F#m    A                  F#m
[Bass: E E F# A B A F# A   c#   c# B A  B F#     A   c#   c# B A  B F#]

A          
I don't like you, but I love you
F#m
Seems that I'm always thinking of you
A     A7               D                  B7
Oh,oh,oh, you treat me badly, I love you madly,
     E7          A
you really got a hold on me (you really got a hold on me )
     F#m
you really got a hold on me (you really got a hold on me ) baby,


I don't want you, but I need you
Don't wanna kiss you, but I need to
Oh, oh, oh, you do me wrong now, my love is strong now,
you really got a hold on me (you really got a hold on me )
you really got a hold on me (you really got a hold on me ) baby,
A       A7            D
I love you and all I want you to do is just
A                           E7
Hold me, hold me, hold me, hold me...

                       A         A/F#      F#m  E   A 
[Bass: E E F# A B A F# A    e c# f#   e c# f#   e   A] tighter
                       A         A/F#      F#m  E   A 
[Bass: E E F# A B A F# A    e c# f#   e c# f#   e   A] tighter

I wanna leave you, don't wanna stay here
Don't wanna spend another day here
Oh, oh, oh, I wanna spit now, I just can quit now
you really got a hold on me (you really got a hold on me )
                 F#m
you really got a hold on me (you really got a hold on me ) baby,
I love you and all I want you to do is just
Hold me please, hold me squeeze, hold me, hold me...

     A
You really got a hold on me (you really got a hold on me )
     F#m
You really got a hold on me (you really got a hold on me )
A                                A6
[Bass: ... A F# E A F# E A]

====================================================================================================================================================================================================================================================

I Wanna Be Your Man

TABBED BY: The Beatles Central Team (jpgr_beatles@yahoo.com)


Opening Lick:
  
E|---------------------------------|
B|---------------------------------|
G|-2(4)hold--(4)release-2----------|
D|-------------------------0-------|
A|---------------------------------|
E|---------------------------------|
   ^       ^       ^       ^                        

Verse 1:

E7                    
I wanna be your lover baby  I wanna be your man
 
I wanna be your lover baby  I wanna be your man

                
Love you like no other baby  like no other can
 
Love you like no other baby  like no other can                                  

         
Chorus:

E7                  F#7       
I wanna be your man 

Fill 1:
E|---------14-----13---12----11----|
B|---------------------------------|
G|---------11-----10----9-----8----|
D|---------------------------------|
A|---------------------------------|
E|---------------------------------|
   ^       ^       ^       ^ 
     
B7                  E
I wanna be your man    

Fill 2:
E|---------12-----11---10-----9----|
B|---------------------------------|
G|----------9------8----7-----6----|
D|---------------------------------|
A|---------------------------------|
E|---------------------------------|
   ^       ^       ^       ^ 

C#7                 F#7       
I wanna be your man      (Fill 1)
B7               E  D/E
I wanna be your man    


Verse 2:

E7                    
Love you like no other baby  like no other can
 
Love you like no other baby  like no other can   


Chorus:

E7                  F#7      
I wanna be your man     (Fill 1)
B7                  E
I wanna be your man     (Fill 2)
C#7                 F#7       
I wanna be your man     (Fill 1)
B7               E  D/E
I wanna be your man    


Verse 3:

Tell me that you love me baby  Let me understand
 
Tell me that you love me baby  I wanna be your man 


I wanna be your lover baby  I wanna be your man
 
I wanna be your lover baby  I wanna be your man


Chorus:

E7                  F#7      
I wanna be your man     (Fill 1)
B7                  E
I wanna be your man     (Fill 2)
C#7                 F#7       
I wanna be your man     (Fill 1)
B7               E  D/E
I wanna be your man    


Solo:


   E7                             
E|---------------------------------|--------------------------------
B|---------------------------------|--------------------------------
G|---------2b(4)--------------2b(4)|------------2b(4)r2--0----------
D|---------------------------------|-------------------------2------
A|---------------------------------|--------------------------------
E|---------------------------------|--------------------------------
   ^       ^       ^       ^         ^       ^       ^       ^
                             
E|---------------------------------|--------------------------------
B|---------------------------------|--------------------------------
G|-------------0-----------2-------|-2b(4)------2b(4)r2--0----------
D|-2-------------------------------|-------------------------2------
A|---------------------------------|--------------------------------
E|---------------------------------|--------------------------------
   ^       ^       ^       ^         ^       ^       ^       ^
                             
E|---------------------------------|--------------------------------
B|---------9-----------7-----------|-9----------12-----------9------
G|---------9-----------7-----------|-9----------12-----------9------
D|---------9-----------7-----------|-9----------12-----------9------
A|---------------------------------|--------------------------------
E|---------------------------------|--------------------------------
   ^       ^       ^       ^         ^       ^       ^       ^
                            
E|---------------------------------|--------------------------------
B|---------9-----------7-----------|-9----------12------------------
G|---------9-----------7-----------|-9----------12------------------
D|---------9-----------7-----------|-9----------12------------------
A|---------------------------------|--------------------------------
E|---------------------------------|--------------------------------
   ^       ^       ^       ^         ^       ^       ^       ^
                             
E|---------------------------------|--------------------------------
B|--------12---9-------------------|-7-----------9------------------
G|--------12---9-------------------|-7-----------9------------------
D|--------12---9-------------------|-7-----------9------------------
A|---------------------------------|--------------------------------
E|---------------------------------|--------------------------------
   ^       ^       ^       ^         ^       ^       ^       ^
                             
E|---------------------------------|--------------------------------
B|--------12---9-------------------|-7-----------9------------------
G|--------12---9-------------------|-7-----------9------------------
D|--------12---9-------------------|-7-----------9------------------
A|---------------------------------|--------------------------------
E|---------------------------------|--------------------------------
   ^       ^       ^       ^         ^       ^       ^       ^

Verse 4:

I wanna be your lover baby  I wanna be your man
 
I wanna be your lover baby  I wanna be your man


Love you like no other baby  like no other can
 
Love you like no other baby  like no other can   


Chorus:

E7                  F#7      
I wanna be your man     (Fill 1)
B7                  E
I wanna be your man     (Fill 2)
C#7                 F#7       
I wanna be your man     (Fill 1)
B7               E  D/E
I wanna be your man    


Coda:

E7
I wanna be your man   oh    I wanna be your man   oh 

I wanna be your man   ho  ho   


====================================================================================================================================================================================================================================================

Devil In Her Heart

TABBED BY: The Beatles Central Team (jpgr_beatles@yahoo.com)


Intro:

   Am7                               D7
E|-------8----7----5-----------3---|-5----5----3--------------------
B|-------10---8----7-----------5---|-7----7----5-----7----5----3----
G|---------------------------------|-----------------7----5----4----
D|---------------------------------|--------------------------------
A|---------------------------------|--------------------------------
E|---------------------------------|--------------------------------
   ^       ^       ^       ^         ^       ^       ^       ^                   

   G                                 
E|---------------------------------|
B|---------3---5---3---3---2---1---|
G|---------4---5---4---4---3---2---|
D|---------------------------------|
A|---------------------------------|
E|---------------------------------|
   ^       ^       ^       ^        
Chorus:
                           Am7
She's got the devil in her heart
D7                        G
   But her eyes they tantalize
                            Am7
She's gonna tear your heart apart
D7                        G
   Oh her lips are really thrilling

Fill 1:

   G7                                 
E|---------------------------------|
B|---------0---0---1---1---3---3---|
G|---------0---0---2---2---4---4---|
D|---------------------------------|
A|---------------------------------|
E|---------------------------------|
   ^       ^       ^       ^           
Verse 1:

C                    Cm                G
I'll take my chances    for romance is
                G7
So important to me   (Fill 1)
C                    Cm                     A7
She'll never hurt me    she won't desert me
                       D7
She's an angel sent to me

Chorus:
                           Am7
She's got the devil in her heart     no
D7                 G
no this I can't believe
                            Am7
She's gonna tear your heart apart
D7                       G
   No no nay will she deceive  (Fill 1)

Verse 2:

C                           Cm          
I can't believe that she'll ever ever go
G                      G7
Not when she hugs and says she loves me so  (Fill 1)
C                    Cm                     A7
She'll never hurt me    she won't desert me
                  D7
Listen can't you see?

Chorus:
                           Am7
She's got the devil in her heart  oh no no
D7                   G
no   this I can't believe
                            Am7
She's gonna tear your heart apart
D7                       G
   No no nay will she deceive  (Fill 1)

Verse 3:

C                  Cm          
Don't take chances    if your romance is
G               G7
So important to you (Fill 1)
C                    Cm                     A7
She'll never hurt me    she won't desert me
                       D7
She's an angel sent to me

Chorus:
                           Am7
She's got the devil in her heart  oh no no
D7                    G
no no this I can't believe
                            Am7
She's gonna tear your heart apart
D7                       G
   No no nay will she deceive  

Coda:                      

(Play intro figure over the Am7 D7 and G chords)

                           Am7
She's got the devil in her heart  
D7                        G
No she's an angel sent to me
                           Am7
She's got the devil in her heart  
D7                        G
No she's an angel sent to me

Finish the song by strumming this chord:

   G10                                 
E|----10---------------------------|
B|----10---------------------------|
G|----9----------------------------|
D|----9----------------------------|
A|----10---------------------------|
E|---------------------------------|

====================================================================================================================================================================================================================================================

Not A Second Time

TABBED BY: The Beatles Central Team (jpgr_beatles@yahoo.com)


Verse:
G                    Em
You know you made me cry
G                         Em
I see no use in wonderin' why
   D       G        D7
I cry for you
G                          Em
And now you've changed you mind
G                          Em
I see no reason to change mine
   D        Am7       D7
I cry it's through

Chorus:
Am7                  Bm7
You're giving me the same old line
G             Em   
I'm wondering why
Am
You hurt me then  You're back again
Bm       D7               Em
No    no no, not a second time

Solo:
Am7      Bm7
G        Em
Am
Bm       D7
Em

Verse:
G                    Em
You know you made me cry
G                         Em
I see no use in wonderin' why
   D       G        D7
I cry for you
G                          Em
And now you've changed you mind
G                          Em
I see no reason to change mine
   D        Am7       D7
I cry it's through

Chorus:
Am7                  Bm7
You're giving me the same old line
G             Em   
I'm wondering why
Am
You hurt me then  You're back again
Bm       D7               Em
No    no no, not a second time
              G         Em
Not a second time       
                G         Em
Not the second time
            G           Em
No no no no no    no no no

======================================================================================================================================================================================================================
Добавлено: 22.04.2012
Другие материалы по этой песне:
  • Аккорды и текст

Страница создана 22.04.2012
http://primanota.ru/beatles/with-the-beatles-album-chords.htm
Привет, Гость.
Предлагаем пройти революционный курс по гитаре.
Подарок от PrimaNota.Ru, забирай!