PrimaNota.ru - самый крупный в мире бесплатный архив песенных текстов, аккордов, табулатур и нот


Beatles - She Came In Thorugh The Bathroom Window - таба, видео

Регистрация Запомнить меня
Войти через:  Facebook Google Twitter Vk Yandex Mail.ru

Beatles - She Came In Thorugh The Bathroom Window - таба, видео

Печатать
Просмотров: 388
Новый альбом группы 'Черный Кузнец' по культовому сериалу 'Сверхъестественное'!
As recorded by The Beatles
                        (From the 1969 Album ABBEY ROAD)

Words and Music by Paul McCartney
Transcribed by César Miguel (jebar87@yahoo.com.br)

           A                   D/A                 Dm/A                   G
      x 0 2 2 2 0          x 0 0 2 3 2          x x x 2 3 1          3 2 0 0 3 3

           C                  Em7/B
      x 3 2 0 1 0          x 2 0 0 3 0

Gtr I (E A D G B E) - 'John Lennon (lower strings)'
Gtr II (E A D G B E) - 'John Lennon (higher strings)'
Gtr III (E A D G B E) - 'George Harrison'
Gtr IV (E A D G B E) - 'John Lennon'

 1st & 3rd Verses
  Q=90
             $
  A          D/A
 4/4
  Gtrs I, II
  W          E E E    S S +S S S S  S  S E
  |          | | |    | |  | | | |  |  | |
  /          / / /    / /  / / / /  /  / /

  Gtr III
  W          Q   S  S S S  S S S S +S  S e
|----------|-------10-----10---------------|
|----------|---------------------7-(7)-8-7-|
|----------|----------7h9----7---7-(7)-8-7-|
|-7--------|-------------------9-----------|
|----------|-------------------------------|
|----------|-------------------------------|
|
| Gtr IV
| <
| W          W
|-5--------|-5-----------------------------|
|-5--------|-7-----------------------------|
|-6--------|-------------------------------|
|-7--------|-7-----------------------------|
|----------|-------------------------------|
|----------|-------------------------------|


  A                          D/A
   E E E S S S S S S S S E   E E E    S S +S S S S S S  E
   | | | | | | | | | | | |   | | |    | |  | | | | | |  |
   / / / / / / / / / / / /   / / /    / /  / / / / / /  /

   W                         Q   S  S S S  S S S S S S  e
|--9-----------------------|-------10-----10-----------10----|
|--------------------------|----------7-7----7h8-7------7----|
|--9-----------------------|----------7h9----7-7-7-7-7-------|
|--------------------------|-----------------------7h9-------|
|--------------------------|---------------------------------|
|--------------------------|---------------------------------|
|
|  H         Q       Q       W
|--9---------5-------2-----|---------------------------------|
|-10---------7-------2-----|-3-------------------------------|
|--9-----------------2-----|-2-------------------------------|
|--7---------7-------------|---------------------------------|
|--------------------------|---------------------------------|
|--------------------------|---------------------------------|
                             W


  A                          D/A
   E E E S S S S S S S S E   E E E    S S +S S S  S S S E
   | | | | | | | | | | | |   | | |    | |  | | |  | | | |
   / / / / / / / / / / / /   / / /    / /  / / /  / / / /

   W                         Q   S  S S S  S S S  S S S e
|--9-----------------------|-------10-----10-----10-------|
|--------------------------|----------7h8-----------7h8-7-|
|--9-----------------------|-----------------7-7----7-7-7-|
|--------------------------|-----------------7h9----------|
|--------------------------|------------------------------|
|--------------------------|------------------------------|
|
|  H         Q       Q       W
|--9---------5-------2-----|-2----------------------------|
|-10---------7-------2-----|-3----------------------------|
|--9-----------------2-----|-2----------------------------|
|--7---------7-------------|------------------------------|
|--------------------------|------------------------------|
|--------------------------|------------------------------|
                             W


      E E   E   S S +S S S S S S E
      | |   |   | |  | | | | | | |
      / /   /   / /  / / / / / / /

   a  Q    +E   E    Q       Q
|-11s14---(14)-12---10-------5------|
|-----------------------------------|
|-11s14---(14)-12---11-------7------|
|-----------------------------------|
|-----------------------------------|
|-----------------------------------|
|
|     W
|-----2-----------------------------|
|-----3-----------------------------|
|-----2-----------------------------|
|-----------------------------------|
|-----------------------------------|
|-----------------------------------|


             1st & 2nd Bridges
  A           Dm/A
  W           E E E   S S +S        S     E E S S
  |           | | |   | |  |        |     | | | |
  /           / / /   / /  /        /     / / / /

                           |-----3-----|
  W           Q   S S S S  S    +S    +S  E E E
|-9--------||-------------------------------------|
|----------||-------------------------------------|
|-9--------||---------7-9--9b10r(9)---(9)p7-7-9---|
|----------||-------7-----------------------------|
|----------||-------------------------------------|
|----------||-------------------------------------|
|
| >
| W           W
|-0--------||-------------------------------------|
|-2--------||-------------------------------------|
|-2--------||-------------------------------------|
|----------||-------------------------------------|
|----------||-------------------------------------|
|----------||-------------------------------------|


  A                        Dm/A
  E E E S S +S S E E S S   E E E   S S +S    S E E     S S
  | | | | |  | | | | | |   | | |   | |  |    | | |     | |
  / / / / /  / / / / / /   / / /   / /  /    / / /     / /

                                                 |-3-|
  W                        Q   S S e    E      E S S S E
|------------------------|---------------------------------|
|------------------------|---------------------------------|
|-6----------------------|---------7----9b10---9-7h9p7-----|
|------------------------|-------7-------------------------|
|------------------------|---------------------------------|
|------------------------|---------------------------------|
|
| W                        W
|------------------------|---------------------------------|
|------------------------|---------------------------------|
|------------------------|---------------------------------|
|------------------------|---------------------------------|
|------------------------|---------------------------------|
|------------------------|---------------------------------|


  G                          C          Em7/B
  E E E S S +S S E E S S      E E  E     E   +E    E   E   E
  | | | | |  | | | | | |      | |  |     |    |    |   |   |
  / / / / /  / / / / / /      / /  /     /    /    /   /   /

  W                        a  E E  E     S S  S  S S S S S E
|------------------------|------8-10b12-10p8-----------------|
|------------------------|-8h10-----------------10p8---------|
|------------------------|---------------------------9s7-5h7-|
|------------------------|-----------------------------------|
|------------------------|-----------------------------------|
|------------------------|-----------------------------------|


                To Coda
  G                        C       A
                          2/4
  E E E S S +S S E E S S   E   E E E
  | | | | |  | | | | | |   |   | | |
  / / / / /  / / / / / /   /   / / /

  W                        E a E E E
|------------------------|---------9---|
|------------------------|-------8-----|
|------------------------|---7s9---9---|
|-5----------------------|-------------|
|------------------------|-------------|
|------------------------|-------------|


               2nd Verse
  A             D/A
 4/4
   W            E E E    S S +S S S S  S  S E
   |            | | |    | |  | | | |  |  | |
   /            / / /    / /  / / / /  /  / /

  +W            Q   S  S S S  S S S S +S  S e
|-(9)--------||-------10-----10---------------|
|------------||---------------------7-(7)-8-7-|
|-(9)--------||----------7h9----7---7-(7)-8-7-|
|------------||-------------------9-----------|
|------------||-------------------------------|
|------------||-------------------------------|


  A                         D/A
  E E E S S S S S S S S E   E E E    S S +S S S S S S  E
  | | | | | | | | | | | |   | | |    | |  | | | | | |  |
  / / / / / / / / / / / /   / / /    / /  / / / / / /  /

  W                         Q   S  S S S  S S S S S S  e
|-9-----------------------|-------10-----10-----------10----|
|-------------------------|----------7-7----7h8-7------7----|
|-9-----------------------|----------7h9----7-7-7-7-7-------|
|-------------------------|-----------------------7h9-------|
|-------------------------|---------------------------------|
|-------------------------|---------------------------------|


  A                         D/A
  E E E S S S S S S S S E   E E E    S S +S S S  S S S E
  | | | | | | | | | | | |   | | |    | |  | | |  | | | |
  / / / / / / / / / / / /   / / /    / /  / / /  / / / /

  W                         Q   S  S S S  S S S  S S S e
|-9-----------------------|-------10-----10-----10-------|
|-------------------------|----------7h8-----------7h8-7-|
|-9-----------------------|-----------------7-7----7-7-7-|
|-------------------------|-----------------7h9----------|
|-------------------------|------------------------------|
|-------------------------|------------------------------|


      E E   E   S S +S S S S S S E
      | |   |   | |  | | | | | | |
      / /   /   / /  / / / / / / /

   a  Q    +E   E    Q       Q
|-11s14---(14)-12---10-------5------||
|-----------------------------------||
|-11s14---(14)-12---11-------7------||
|-----------------------------------||
|-----------------------------------||
|-----------------------------------||


 3rd Verse     2nd Bridge (cont.)
D.S. al Coda      &
  A               C                   A
               2/4                       4/4
    W              E S S  E           E   +W
    |              | | |  |           |    |
    /              / / /  /           /    /

                          |----3----|
  a W           a  E E    S     +S  S E   +W
|-7s9--------||------8---10b12r(10)p8-9-|-(9)----*|
|------------||-8h10--------------------|--------*|
|-7s9--------||-------------------------|--------*|
|------------||-------------------------|--------*|
|------------||-------------------------|--------*|
|------------||-------------------------|--------*|
|
|   Gtr IV
|   <
|   W              W                       W
|---5--------||-------------------------|--------*|
|---5--------||-------------------------|--------*|
|---6--------||-------------------------|--------*|
|---7--------||-------------------------|--------*|
|------------||-------------------------|--------*|
|------------||-------------------------|--------*|


Duration Legend
---------------
W - whole; H - half; Q - quarter; E - 8th; S - 16th; T - 32nd; X - 64th; a - acciaccatura
+ - note tied to previous; . - note dotted; .. - note double dotted
Uncapitalized letters represent notes that are staccato (1/2 duration)
Irregular groupings are notated above the duration line
Duration letters will always appear directly above the note/fret number it represents the
duration for.  Duration letters with no fret number below them represent rests.  Multi-
bar rests are notated in the form Wxn, where n is the number of bars to rest for.  Low
melody durations appear below the staff

Tablature Legend
----------------
 h   - hammer-on
 p   - pull-off
 b   - bend
 pb  - pre-bend
 r   - bend release (if no number after the r, then release immediately)
 /\  - slide into or out of (from/to "nowhere")
 s   - legato slide
 S   - shift slide
  - natural harmonic
[n]  - artificial harmonic
n(n) - tapped harmonic
 ~   - vibrato
 tr  - trill
 T   - tap
 TP  - trem. picking
 PM  - palm muting
\n/  - tremolo bar dip; n = amount to dip
 \n  - tremolo bar down
 n/  - tremolo bar up
/n\  - tremolo bar inverted dip
 =   - hold bend; also acts as connecting device for hammers/pulls
 <>  - volume swell (louder/softer)
 x   - on rhythm slash represents muted slash
 o   - on rhythm slash represents single note slash

Misc Legend
-----------
 |  - bar
||  - double bar
||o - repeat start
o|| - repeat end
*|  - double bar (ending)
 :  - bar (freetime)
 $  - Segno
 &  - Coda
Tempo markers -  = BPM(8/16=s8/s16), where s8 = swing 8ths, s16 = swing 16ths


Добавлено: 22.05.2012
Другие материалы по этой песне:
  • Аккорды и текст

Страница создана 22.05.2012
http://primanota.ru/beatles/she-came-in-thorugh-the-bathroom-window-chords.htm
Привет, Гость.
Предлагаем пройти революционный курс по гитаре.
Подарок от PrimaNota.Ru, забирай!