PrimaNota.ru - самый крупный в мире бесплатный архив песенных текстов, аккордов, табулатур и нот


Beatles - Lonesome Tears In My Eyes - текст песни, бас-таба, видео

Регистрация Запомнить меня
Войти через:  Facebook Google Twitter Vk Yandex Mail.ru

Beatles - Lonesome Tears In My Eyes - текст песни, бас-таба, видео

Печатать
Просмотров: 278
  ------------------------------------------------------------------
   THE BEATLES – LONESOME TEARS IN MY EYES (Johnny Burnette/Dorsey
                 Burnette/Paul Burlison & Al Mortimer) From LIVE AT
                 THE BBC album. Released on 1994. 
  ------------------------------------------------------------------


   Oh baby, baby, baby
   Blues and sorrow
   And I love you tomorrow
   Just suit you just fine
   Oh baby, baby, baby
   Blues and sorrow
   And I love you tomorrow
   Just suit you just fine
   I can't forget that you told me
   So many promising lies
   How must I forget these
   Lonesome tears in my eyes?
   You've broken my heart
   Gonna do it again
   And I can't forget
   The spell that I'm in
   Can't forget that you told me
   So many promising lies
   I'm a-trying to forget these
   Lonesome tears in my eyes
    (GUITAR SOLO)
   You've broken my heart
   Gonna do it again
   I can't forget
   The spell that I'm in
   I can't forget that you told me
   So many promising lies
   I'm a-trying to forget these
   Lonesome tears in my eyes
    (GUITAR SOLO)
   Oh baby, baby, baby
   Blues and sorrow
   And I love you tomorrow
   It'll suit you just fine
   Oh baby, baby, baby
   Blues and sorrow
   I love you tomorrow
   Just suit you just fine
   I can't forget that you told me
   So many promising lies
   I'm a-trying to forget these
   Lonesome tears in my eyes


    INTRO

  G|---------------------------------|---------------------------------|
  D|-9-------------------------------|-9-------------------------------|
  A|-------------6-----------9-------|-----------------------------6---|
  E|---------------------------------|-----------------7---7---9-------|


  G|---------------------------------|---------------------------------|
  D|-------------6-----------9-------|---------------------------------|
  A|-7-------------------------------|-7-------------------------------|
  E|---------------------------------|---------------------------------|


    VERSE

  G|---------------------------------|---------------------------------|
  D|-9-------------------------------|---------------------------------|
  A|-------------6-----------9-------|-------------6-----------9-------|
  E|---------------------------------|-7-------------------------------|


  G|---------------------------------|---------------------------------|
  D|-------------6-----------9-------|-------------6-----------9-------|
  A|-7-------------------------------|-7-------------------------------|
  E|---------------------------------|---------------------------------|


  G|---------------------------------|---------------------------------|
  D|---------------------------------|---------------------------------|
  A|-------------6-----------9-------|-------------6-----------9-------|
  E|-7-------------------------------|-7-------------------------------|


  G|---------------------------------|---------------------------------|
  D|-------------9-------------------|-----------------9---------------|
  A|-7-----------------------6-------|-7-------------------------------|
  E|---------------------------------|---------------------------------|


  G|---------------------------------|---------------------------------|
  D|-7-------------------------------|-7-------------------------------|
  A|-------------4-----------7-------|-------------4-----------7-------|
  E|---------------------------------|---------------------------------|


  G|---------------------------------|---------------------------------|
  D|-------------6-----------9-------|-------------6-----------9-------|
  A|-7-------------------------------|-7-------------------------------|
  E|---------------------------------|---------------------------------|


  G|---------------------------------|---------------------------------|
  D|---------------------------------|---------------------------------|
  A|-------------6-----------9-------|-------------6-----------9-------|
  E|-7-------------------------------|-7-------------------------------|


  G|---------------------------------|---------------------------------|
  D|-------------6-----------9-------|---------------------------------|
  A|-7-------------------------------|-7-------------------------------|
  E|---------------------------------|---------------------------------|


    VERSE

  G|---------------------------------|---------------------------------|
  D|-9-----------6-------------------|-9-----------6-------------------|
  A|---------------------------------|---------------------------------|
  E|---------------------------------|---------------------------------|


  G|---------------------------------|---------------------------------|
  D|-------------6-----------9-------|-------------6-----------9-------|
  A|-7-------------------------------|-7-------------------------------|
  E|---------------------------------|---------------------------------|


  G|---------------------------------|---------------------------------|
  D|---------------------------------|---------------------------------|
  A|-------------6-----------9-------|-------------6-----------9-------|
  E|-7-------------------------------|-7-------------------------------|


  G|---------------------------------|---------------------------------|
  D|-------------6-----------9-------|-------------6-----------9-------|
  A|-7-------------------------------|-7-------------------------------|
  E|---------------------------------|---------------------------------|


  G|---------------------------------|---------------------------------|
  D|-7-------------------------------|-7-------------------------------|
  A|-------------4-----------7-------|-------------4-----------7-------|
  E|---------------------------------|---------------------------------|


  G|---------------------------------|---------------------------------|
  D|-------------6-----------9-------|-------------6-----------9-------|
  A|-7-------------------------------|-7-------------------------------|
  E|---------------------------------|---------------------------------|


  G|---------------------------------|---------------------------------|
  D|---------------------------------|-------------9-----------7-------|
  A|-------------6-----------9-------|---------------------------------|
  E|-7-------------------------------|-7-------------------------------|


  G|---------------------------------|---------------------------------|
  D|-------------6-/-9-------6-------|---------------------6---7---8---|
  A|-7-------------------------------|-7-------------------------------|
  E|---------------------------------|---------------------------------|


    GUITAR SOLO

  G|---------------------------------|---------------------------------|
  D|-9-------------------------------|---------------------------------|
  A|-------------6-----------9-------|-------------6-----------9-------|
  E|---------------------------------|-7---7---------------------------|


  G|---------------------------------|---------------------------------|
  D|-------------6-----------9-------|-----------------6---6---7---8---|
  A|-7-------------------------------|-7---7-------9-------------------|
  E|---------------------------------|---------------------------------|


  G|---------------------------------|---------------------------------|
  D|-9---9---9---9---9---9---9---9---|-9---9---9---9---9---9---9---9---|
  A|---------------------------------|---------------------------------|
  E|---------------------------------|---------------------------------|


  G|---------------------------------|---------------------------------|
  D|---------------------------------|---------------------------------|
  A|-7---7---7---7---7---7---7---7---|-7---7---7---7---7---7---7---7---|
  E|---------------------------------|---------------------------------|


  G|---------------------------------|---------------------------------|
  D|-7-------------------------------|-7-------------------------------|
  A|-------------4-----------7-------|-------------4-----------7-------|
  E|---------------------------------|---------------------------------|


  G|---------------------------------|---------------------------------|
  D|-------------6-----------9-------|-------------9-------------------|
  A|-7-------------------------------|-7-----------------------7-------|
  E|---------------------------------|---------------------------------|


  G|---------------------------------|---------------------------------|
  D|---------------------------------|-9-------------------------------|
  A|-------------6-----------9-------|-------------6-----------9-------|
  E|-7-------------------------------|---------------------------------|


  G|---------------------------------|---------------------------------|
  D|-------------6-----------9-------|---------------------------------|
  A|-7-------------------------------|-7-------------------------------|
  E|---------------------------------|---------------------------------|


    VERSE

  G|---------------------------------|---------------------------------|
  D|-9-------------------------------|---------------------------------|
  A|-----------/-6-----------9-------|-----------/-6-----------9-------|
  E|---------------------------------|-7-------------------------------|


  G|---------------------------------|-----9---------------------------|
  D|-----------/-6-----------9-------|-----------/-6-----------9-------|
  A|-7-------------------------------|-7-------------------------------|
  E|---------------------------------|---------------------------------|


  G|---------------------------------|---------------------------------|
  D|-9-------------------------------|-9-------------------------------|
  A|-------------6-----------9-------|-------------6-----------9-------|
  E|---------------------------------|---------------------------------|


  G|---------------------------------|---------------------------------|
  D|-------------6-----------9-------|-------------6-----------9-------|
  A|-7-------------------------------|-7-------------------------------|
  E|---------------------------------|---------------------------------|


  G|---------------------------------|---------------------------------|
  D|-7-------------------------------|-7-------------------------------|
  A|-------------4-----------7-------|-------------4-----------7-------|
  E|---------------------------------|---------------------------------|


  G|---------------------------------|---------------------------------|
  D|-------------6-----------9-------|-------------6-----------9-------|
  A|-7-------------------------------|-7-------------------------------|
  E|---------------------------------|---------------------------------|


  G|---------------------------------|---------------------------------|
  D|---------------------------------|-------------9-----------7-------|
  A|-------------6-----------9-------|---------------------------------|
  E|-7-------------------------------|-7-------------------------------|


  G|---------------------------------|---------------------------------|
  D|-----------/-6-----------9-------|---------6---6---7---7---8---8---|
  A|-7-------------------------------|-7-------------------------------|
  E|---------------------------------|---------------------------------|


    GUITAR SOLO

  G|---------------------------------|---------------------------------|
  D|-9-------------------------------|---------9-----------------------|
  A|---------------------------------|---------------------------------|
  E|-----------------7---------------|-----------------7---------------|


  G|---------------------------------|---------------------------------|
  D|-------------6-----------9-------|-----------/-6-----------9-------|
  A|-7-------------------------------|-7-------------------------------|
  E|---------------------------------|---------------------------------|


  G|---------------------------------|---------------------------------|
  D|-9-------------------------------|---------------------------------|
  A|-------------6-----------9-------|-------------6-----------9-------|
  E|---------------------------------|-7-------------------------------|


  G|---------------------------------|-------9-9-------9---9---9-------|
  D|-------------6-----------9-------|---------------------------------|
  A|-7-------------------------------|-7-------------------------------|
  E|---------------------------------|---------------------------------|


  G|---------------------------------|---------------------------------|
  D|-7-------------------------------|-7-------------------------------|
  A|-------------4-----------7-------|-------------4-----------7-------|
  E|---------------------------------|---------------------------------|


  G|---------------------------------|---------------------------------|
  D|-------------6-----------9-------|-------------6-----------9-------|
  A|-7-------------------------------|-7-------------------------------|
  E|---------------------------------|---------------------------------|


  G|---------------------------------|---------------------------------|
  D|---------------------------------|-9-------------------------------|
  A|-------------6-----------9-------|-------------------------6-------|
  E|-7-------------------------------|-------------7-------------------|


  G|---------------------------------|---------------------------------|
  D|-----------/-6-----------9-------|---------------------------------|
  A|-7-------------------------------|-7-------------------------------|
  E|---------------------------------|---------------------------------|


    VERSE

  G|---------------------------------|---------------------------------|
  D|-9-------------------------------|-9-------------------------------|
  A|-------------6-----------9-------|-------------6-----------9-------|
  E|---------------------------------|---------------------------------|


  G|---------------------------------|---------------------------------|
  D|-------------6-----------9-------|---------------------------------|
  A|-7-------------------------------|-7-----------9-----------7-------|
  E|---------------------------------|---------------------------------|


  G|---------------------------------|---------------------------------|
  D|-9-------------------------------|-9-------------------------------|
  A|-------------6-----------9-------|-------------6-----------9-------|
  E|---------------------------------|---------------------------------|


  G|---------------------------------|-------9-9-----9-9---9---9-------|
  D|-------------6-----------9-------|---------------------------------|
  A|-7-------------------------------|-7-------------------------------|
  E|---------------------------------|---------------------------------|


  G|---------------------------------|---------------------------------|
  D|-7-------------------------------|-7-------------------------------|
  A|-------------4-----------7-------|-------------4-----------6-------|
  E|---------------------------------|---------------------------------|


  G|---------------------------------|---------------------------------|
  D|-----------/-6-----------9-------|-------------6-----------9-------|
  A|-7-------------------------------|-7-------------------------------|
  E|---------------------------------|---------------------------------|


  G|---------------------------------|---------------------------------|
  D|-9-------------------------------|-9-------------------------------|
  A|-------------6-----------9-------|-------------6-----------9-------|
  E|---------------------------------|---------------------------------|


  G|---------------------------------|---------------------------------|
  D|-----------/-6-----------9-------|---------6---6---7---7---8---8---|
  A|-7-------------------------------|-7-------------------------------|
  E|---------------------------------|---------------------------------|


    OUTRO

  G|---------------------------------|---------------------------------|
  D|-9-------------------------------|-9---------------9-------7-------|
  A|-------------6-----------9-------|---------------------------------|
  E|---------------------------------|---------------------------------|


  G|---------------------------------|-----------------9---9---9-------|
  D|-------------6-----------9-------|---------------------------------|
  A|-7-------------------------------|-7-------------------------------|
  E|---------------------------------|---------------------------------|
Добавлено: 28.07.2012
Другие материалы по этой песне:

Страница создана 12.03.2012
http://primanota.ru/beatles/lonesome-tears-in-my-eyes-chords.htm
Привет, Гость.
Предлагаем пройти революционный курс по гитаре.
Подарок от PrimaNota.Ru, забирай!