PrimaNota.ru - самый крупный в мире бесплатный архив песенных текстов, аккордов, табулатур и нот


Beatles - 1967-1970 Disc 1 (album) - таба

Регистрация Запомнить меня
Войти через:  Facebook Google Twitter Vk Yandex Mail.ru

Beatles - 1967-1970 Disc 1 (album) - таба

Печатать
Просмотров: 431
These are tabs from the Capitol Records 1967-1970 (Blue) album. I have collected them 
previously written tabs by other members. THIS IS NOT MY WORK. if the tab is innacurate 
their fault not mine. most of these tabs were tabbed by PJVillanueva so most of the credit should go to him.


-------------------------
Strawberry Fields Forever
-------------------------

There are two other versions of this in the archives, but none are in the
right key. I thought a great song such as this deserved a proper tab in the
archives.

Because the recording of this song involved a lot of playing around with
tape speeds, you need to tune down your guitar by a whole step.

So instead of tuning your bottom string to E, tune to D, then tune the other
strings to this by playing at the 5th/4th fret (you know the routine ...)

You should end up tuned to DGCFAD.

This means that the song is based on the C chord for the guitar, but it
ends up being in the key of Bb.

I've tried to give a guitar part that does justice to all the things that are
going on in the song. For the first bit it's fairly straight forward since the
song has a guitar playing here - but later on I've tried to tab out a guitar
version of what the cellos and trumpets are doing.

Of course you can't play all of the song on just one guitar - but you can do
a pretty good job. I've written the chords above each line of tab if you just
want to strum along, and the words are underneath the line of tab.


Intro :
---------

This is played on the mellotron, but you can do it fairly easily on guitar.


    G    Gmaj7  G7           Am        G       F     C

D--------------------------------------------------------------|
A---3--3--3--3--3--3--1--0--------1--------0-------------------|
F---4--4--4--4--4--4--2--1------2--------0------2----0---------|
C---5-----4-----3--3----------2--------0--------3----2---------|
G--------------------------------------------------3-----------|
D--------------------------------------------------------------|

Chorus :
----------


    C                                   Gm7

D-------------------------------------------------------------------------|
A----------------------------------------3------------------------3--3----|
F---0------------------------------------3-------------------3--3---------|
C---2------------------------------------3----------------3---------------|
G---3------------------------------------5------------3h5-----------------|
D----------------------------------------3--------------------------------|

    Let me take you down cos' I'm going to  Strawberry fields


    A7

D----------------0----------0--0---------------------------------|
A------2--2----2------------------2--2---------------------------|
F---0--------0-----------0---------------------------------------|
C--------------------0h2-----------------------------------------|
G--------------------0-------------------------------------------|
D----------------------------------------------------------------|

    Nothing is real


     F               A7

D-------1---------------------0-----------------------------------|
A----1--1-----------------------2----2----------------------------|
F----2--------------------0-------0-------------------------------|
C----3---------------0h2------------------------------------------|
G----3---------------0--------------------------------------------|
D----1------------------------------------------------------------|

  And nothing to get hung about


    F                 C

D---------------------------------------------------------------|
A---1-----------1------1----------------------------------------|
F---2-----------2------0----------------------------------------|
C---3-----------3------2----------------------------------------|
G---3-----------3------3----------------------------------------|
D---1-----------1-----------------------------------------------|

    Strawberry fields forever

Verse 1:
---------

    G         Gmaj7     G7

D--------------------------------------------------------------------|
A---3--3------3--3-----3--3---1---0----------------------------------|
F---4--4------4--4-----4--4---2---1----------------------------------|
C---5---------4--------3---------------------------------------------|
G--------------------------------------------------------------------|
D--------------------------------------------------------------------|

   Living is easy with eyes closed


    Am      Am/G             F

D-------0---------0---------------1------1-----------------------------|
A-------1---------1---------------1---1------1-------------------------|
F-------2---------2-------------2------------2-------------------------|
C-----2---------2---------------3--------------------------------------|
G---0------0--------------------3--------------------------------------|
D-------------3-------------0h1----------------------------------------|

     Misunderstanding all you see

    F            G               C         G/B      Am    Am/G

D---------1----------3----------------------------------0------------|
A---------1----------3----------------------------------1------------|
F---------2-------4----------------0---------0----------2------------|
C------3----------5----------------2---------0----------2------------|
G------3-------------------------3---------2---------0---------------|
D--0h1--------1/3-------------------------------------------3--------|

    It's getting hard to be someone but it all works out


    F          G               F           C

D--------1-----------3---------------1--------------------------------|
A------1-------------3---3-----------1--1--0h1------------------------|
F------2-------------4---4-----------2--2--0--------------------------|
C------3-----------------5--------------3-----------------------------|
G---------------------------------------------------------------------|
D--0h1----------1/3-------------0h1-----------------------------------|

      It doesn't matter much to me


Chorus :
---------

   C                                   Gm               (no chord )

D--------------------------------------3-------------------------|
A--------------------------------------3-------------------------|
F--------------------------------------3-------------------------|
C--2-----------------------------------5------0------------------|
G--3-----------------------------------5---1-----1-----1------1--|
D--------------------------------------3------------3------1-----|

   Let me take you down cos' I'm going to  Strawberry fields

  (no chord)

D--------------------------------------------------------------|
A--------------------------------------------------------------|
F--------------------------------------------------------------|
C--------------------------------------------------------------|
G---7--------------7-------------------------------------------|
D---0--------------0-------------------------------------------|

       Nothing is real


      F          G     A7

D-----1----------3-----0----------------------------------------|
A-----1----------3-----2----------------------------------------|
F-----2----------4-----0----------------------------------------|
C-----3----------5-----2----------------------------------------|
G-----3----------5-----0----------------------------------------|
D-----1----------3----------------------------------------------|

  And nothing to get hung about

    F                 C

D---------------------------------------------------------------|
A---1---------1-------1-----------------------------------------|
F---2---------2-------0-----------------------------------------|
C---3---------3-------2-----------------------------------------|
G---3---------3-------3-----------------------------------------|
D---1---------1-------------------------------------------------|

   Strawberry fields forever


Linking phrase :
-----------------

This is the little downwards scale played on a harp-like instrument.
Leave all strings to sustain as much as possible.


D----1p0----------------------------------------------------------|
A---------1-------------------------------------------------------|
F-----------3p0---------------------------------------------------|
C---------------3p2-----------------------------------------------|
G--------------------3--------------------------------------------|
D-----------------------------------------------------------------|


Verse 2:
---------

    G       Gmaj7     G7

D-------------------------------------------------------------------|
A---3--------3---------3-----1---0----------------------------------|
F---4--------4---------4-----2---1----------------------------------|
C---5--------4---------3-----3---3----------------------------------|
G-------------------------------------------------------------------|
D-------------------------------------------------------------------|

   Noone I think is in my tree


    Am         Am7             F

D-----------------------------------------------------------------|
A---1-----------1--------------1----------------------------------|
F---2-----------0--------------2----------------------------------|
C---2-----------2--------------3----------------------------------|
G-------------------------------------0---------------------------|
D-----------------------------------------3-----------------------|

    I mean it must be high or low

    F              G                  C                 Am  Am/G

D--------------------------------------------------------------------|
A---1--------------3------------------1----------------1-------------|
F---2--------------4------------------0----------------2-------------|
C---3--------------5------------------2----------------2-------------|
G---3--------------5------------------3----------------0-------------|
D---1--------------3---------------------------------------3---------|

      That is you can't you know tune in but it's alright


    F               G                 F                C

D------------------------------------------------------0------0-------------------|
A---1---1---1---1---3---3---3---3------1-------1-------1------1-------------------|
F---2---2---2---2---4---4---4---4------2-------2-------0------0-------------------|
C---3---3---3---3---5---5---5---5------3-------3-------2---2-----2----------------|
G---3---3---3---3---5---5---5---5------3---0---3---0---3--------------------------|
D---1---1---1---1---3---3---3---3------1------------------------------------------|

       That is I  think it's not too bad

Chorus :
---------

   C                                   Gm

D---------------------------------------------6-6---------------|
A---------------------------------------------3-3---------------|
F---------------------------------------3-----3-3---------------|
C--2------------------------------------5-----------------------|
G--3------------------------------------5-----------------------|
D---------------------------------------3-----------------------|

     Let me take you down cos I'm going to

                                   Gm/E

D-------------------------------6-6-----------3--3--3--3--3-------|
A-------------------------------8-8-------------------------------|
F--------------3------------------------------0--0--0--0--0-------|
C--------------5--------------------------------------------------|
G--------------5-------1------------------------------------------|
D--------------3-------1-----0-------------0----------------------|

  Strawberry fields             Nothing is real

         F         G        A

D--------1---------3--------5-----------------------------------|
A--------1---------3--------5-----------------------------------|
F--------2---------4--------6-----------------------------------|
C--------3---------5--------7-----------------------------------|
G--------3---------5--------7-----------------------------------|
D--------1---------3--------5-----------------------------------|

   And nothing to get hung about

   F                   C

D---------------------------------------------------------------|
A--1-----------1-------1----------------------------------------|
F--2-----------2-------0----------------------------------------|
C--3-----------3-------2----------------------------------------|
G--3-----------3-------3----------------------------------------|
D--1-----------1------------------------------------------------|

   Strawberry fields forever

Linking phrase :
-----------------


D----1p0----------------------------------------------------------|
A---------1-------------------------------------------------------|
F-----------3p0---------------------------------------------------|
C---------------3p2-----------------------------------------------|
G--------------------3--------------------------------------------|
D-----------------------------------------------------------------|

Verse 3:
---------

    G       Gmaj7     G7

D--------------------------------------------------------------------|
A---3--3----3---3-----3---3--------1--0------------------------------|
F---4--4----4---4-----4---4--------2--1------------------------------|
C---5--5----4---4-----3---3--------3--3------------------------------|
G--------------------------------------------------------------------|
D--------------------------------------------------------------------|

   Always, no, sometimes think it's me

    Am                Am7             F

D-------------------------------------------------------------|
A---1--------1--------1-------1-------1-----------------------|
F---2--------2--------0-------0-------2-----------------------|
C---2--------2--------2-------2-------3-----------------------|
G-----------------------------------------------0-------------|
D----------------------------------------------------3--------|

     But you know I know when it's a dream

   F           G           C              Am    Am/G

D-------------------------------------------------------------|
A-------------------------------------------------------------|
F-------------------------------------------------------------|
C-------------------------------------------------------------|
G----------0-------0---2---3---------------0------------------|
D--1---3-------3----------------3----0----------3-------------|

    I think a no I mean a yes but it's all wrong

   F            G7          F            C

D--------------------------------------------------------------------------|
A--1--1--1--1---3--3--3--3-------------------------------------------------|
F--2--2--2--2---4--4--4--4-------------------0-----------------------------|
C--3--3--3--3---3--3--3--3---3-------------2----3p2p0----------------------|
G--3--3--3--3---5--5--5--5---3--0--3--0--3--------------3------------------|
D--1--1--1--1---3--3--3--3---1---------------------------------------------|

    That is I think I disagree

Chorus :
---------

   C                                   Gm                   Gm7

D--------------------------------------3--------------------------------|
A--1-----------------------------------3------------------3------3------|
F--0-----------------------------------3----------------3------3------3-|
C--2-----------------------------------5--------------5------3------3---|
G--3-----------------------------------5--------------------------------|
D--------------------------------------3--------------------------------|

   Let me take you down cos' I'm going to  Strawberry fields

   A7/E

D---0--------------0--0--0--0--0-----------------------------------|
A---2--------------2--2--2--2--2-----------------------------------|
F---0--------------0--0--0--0--0-----------------------------------|
C---2--------------------------------------------------------------|
G---0--------------------------------------------------------------|
D---0--------------------------------------------------------------|

       Nothing is real


      F          G     A7

D-----1----------3-----0----------------------------------------|
A-----1----------3-----2----------------------------------------|
F-----2----------4-----0----------------------------------------|
C-----3----------5-----2----------------------------------------|
G-----3----------5-----0----------------------------------------|
D-----1----------3----------------------------------------------|

  And nothing to get hung about

    F                 C       Am7      F                 C

D------------------------------------------------------------------|
A---1---------1-------1--------1-------1---------1-------1---------|
F---2---------2-------0--------0-------2---------2-------0---------|
C---3---------3-------2--------2-------3---------3-------2---------|
G---3---------3-------3--------0-------3---------3-------3---------|
D---1---------1------------------------1---------1-----------------|

   Strawberry fields forever         Strawberry fields forever

    F           G      F

D---1-----------3------1-----------5r3---1--0h1p0h1p0--------|
A---1-----------3------1--------------------------------3-3--|
F---2-----------4------2-------------------------------------|
C---3-----------5------3-------------------------------------|
G---3-----------5------3-------------------------------------|
D---1-----------3------1-------------------------------------|

    Strawberry fields forever

Fade out over a chord of C
----------------------------

 (cellos)                     (elec. gtr)

D-----------------------------------------1--0h1p0h1p0h1p0h1p0------|
A-------------------------------------------------------------------|
F-----------5------2------------------------------------------------|
C--------------3-5---3----2-3-5-------------------------------------|
G--3/1---3--------------5-------3-------3---------------------------|
D-------------------------------------------------------------------|

(harp-thing)

D-------------------------------12--------------13--12--12---------15--13---|
A-----------13--11-----11-----------13--11------------------11--------------|
F---10--12-----------------12---------------12------------------12----------|
C---------------------------------------------------------------------------|
G---------------------------------------------------------------------------|
D---------------------------------------------------------------------------|


----------
Penny Lane
----------

Tabbed by:PJVillanueva


1
             A      A/Ab   F#m7 A/E     D6         E7sus4
In Penny Lane there is a barber showing photographs
   E7        A      A/Ab   F#m7     A/E    Am
Of every head he's had the pleasure to know.
            Am6                    Fmaj7
And all the people that come and go
             E7sus4  E7 E7sus4 E7
Stop and say hello.

2
         A    A/Ab    F#m7 A/E     D6      E7sus4
On the corner is a banker with a motorcar,
    E7        A     A/Ab       F#m7 A/E     Am
The little children laugh at him behind his back.
        Am6                    Fmaj7
And the banker never wears a mack
         E7sus4   E7 D
In the pouring rain, very strange.


Middle Eight

          G5           G             Csus2  Cadd9
Penny Lane is in my ears and in my eyes.
G5                   G             Csus2
There beneath the blue suburban skies
           E
I sit, and meanwhile back


3
            A       A/AB    F#m7  A/E     D6       E7sus4
In Penny Lane there is a fireman with an hourglass
    E7          A    A/Ab  F#m7   A/E       Am
And in his pocket is a portrait of the Queen.
            Am6                     Fmaj7
He likes to keep his fire engine clean,
         E7sus4    E7  E7sus4  E7
It's a clean machine.


Solo       A     A/Ab    F#m7  A/E    D6        E7sus4 E7
           A     A/Ab    F#m7  A/E    Am        Am6   Fmaj7
           E7sus4 E7     D


Middle Eight

         G5            G             Csus2  Cadd9  G5
Penny Lane is in my ears and in my eyes.
             G               Csus2
A four of fish and finger pies
           E
In summer, meanwhile back


4
           A       A/Ab   F#m7   A/E   D6       E7sus4
Behind the shelter in the middle of a roundabout
    E7        A     A/Ab    F#m7    A/E       Am
The pretty nurse is selling poppies from a tray
             Am6                      Fmaj7
And tho' she feels as if she's in a play
        E7sus4  E7  E7sus4 E7
She is anyway.

5
            A     A/Ab    F#m7    A/E   D6       E7sus4
In Penny Lane the barber shaves another customer,
   E7        A     A/Ab    F#m7   A/E      Am
We see the banker sitting waiting for a trim.
             Am6              Fmaj7
And then the fireman rushes in
            E7sus4    E7  D
>From the pouring rain,   very strange.


Middle Eight

         G5            G             Csus2  Cadd9
Penny lane is in my ears and in my eyes.
G5                   G          Csus2
There beneath the blue suburban skies
           E
I sit, and meanwhile back.

Coda

A                                    D
Penny lane is in my ears and in my eyes.
A                                   D
There beneath the blue suburban skies,
          A
Penny Lane.


You can see the chords in the tab below.
It is based on the piano work + a walking bass in which I've
tryed to stick to the original as much as possible.

(Use a capo on the second fret)

 Verse1


  A       A/Ab    F#m7    A/E     D6(no3)         E7sus4  E7
e|------- ------- ------- -------|------- ------- ------- -------|
B|2-------2-------2-------2------|0-------0-------0-------0------|
G|2-------2-------2-------2------|2-------2-------2-------1------|
D|2-------2-------2-------2------|0-------0-------0-------0------|
A|0------------------------------|--------2----------------------|
E|--------4-------2-------0------|----------------0-------0----4-|


  A       A/Ab    F#m7    A/E     Am
e|------- ------- ------- -------|0------ 0------ 0------ 0------|
B|2-------2-------2-------2------|1-------1-------1-------1------|
G|2-------2-------2-------2------|2-------2-------2-------2------|
D|2-------2-------2-------2------|2-------2-------2-------2------|
A|0------------------------------|0------------------------------|
E|--------4-------2-------0------|-------------------------------|


  Am6                             Fmaj7
e|0------ 0------ 0------ 0------|0------ 0------ 0------ 0------|
B|1-------1-------1-------1------|1-------1-------1-------1------|
G|2-------2-------2-------2------|2-------2-------2-------2------|
D|2-------2-------2-------2------|2-------2-------2-------2------|
A|-------------------------------|-------------------------------|
E|2------------------------------|1------------------------------|


  E7sus4          E7              E7sus4          E7
e|0------ 0------ 0------ 0------|0------ 0------ 0------ 0------|
B|0-------0-------0-------0------|0-------0-------0-------0------|
G|2-------2-------1-------1------|2-------2-------1-------1------|
D|0-------0-------0-------0------|0-------0-------0-------0------|
A|-------------------------------|-------------------------------|
E|0-------0-------0-------0------|0-------0-------0-------0------|


 Verse2

  A       A/Ab    F#m7    A/E     D6              E7sus4  E7
e|------- ------- ------- -------|------- ------- ------- -------|
B|2-------2-------2-------2------|0-------0-------0-------0------|
G|2-------2-------2-------2------|2-------2-------2-------1------|
D|2-------2-------2-------2------|0-------0-------0-------0------|
A|0------------------------------|--------2----------------------|
E|--------4-------2-------0------|----------------0-------0------|


  A       A/Ab    F#m7    A/E     Am
e|------- ------- ------- -------|0------ 0------ 0------ 0------|
B|2-------2-------2-------2------|1-------1-------1-------1------|
G|2-------2-------2-------2------|2-------2-------2-------2------|
D|2-------2-------2-------2------|2-------2-------2-------2------|
A|0------------------------------|0------------------------------|
E|--------4-------2-------0------|-------------------------------|


  Am6                             Fmaj7
e|0------ 0------ 0------ 0------|0------ 0------ 0------ 0------|
B|1-------1-------1-------1------|1-------1-------1-------1------|
G|2-------2-------2-------2------|2-------2-------2-------2------|
D|2-------2-------2-------2------|2-------2-------2-------2------|
A|-------------------------------|-------------------------------|
E|2------------------------------|1------------------------------|


  E7sus4          E7              D
e|0------ 0------ 0------ 0------|2------ 2------ 2------ -------|
B|0-------0-------0-------0------|3-------3-------3--------------|
G|2-------2-------1-------1------|2-------2-------1--------------|
D|0-------0-------0-------0------|0----4-------4--0--------------|
A|-------------------------------|--------0----------------------|
E|0-------0-------0-------0------|-------------------------------|


 Middle eight

  G5                              G
e|------- ------- ------- -------|------- ------- ------- -------|
B|3-------3-------3-------3------|3-------3-------3-------3------|
G|0-------0-------0-------0------|0-------0-------0-------0------|
D|0-------0-------0-------0------|0-------0-------0-------0------|
A|-------------------------------|2----------- 2----------0----2-|
E|3------------3-------3---------|---------------------3---------|


  Csus2                           Cadd9
e|------- ------- ------- -------|------- ------- ------- -------|
B|3-------3-------3--------------|3-------3-------3-------3------|
G|0-------0-------0--------------|0-------0-------0-------0------|
D|---------------------0--2----3-|2-------2-------2-------2------|
A|3------------3-----------------|3-----------------------3------|
E|-------------------------------|------------3-------3----------|

  G5                              G
e|------- ------- ------- -------|------- ------- ------- -------|
B|3-------3-------3-------3------|3-------3-------3-------3------|
G|0-------0-------0-------0------|0-------0-------0-------0------|
D|0-------0-------0-------0------|0-------0-------0-------0------|
A|---------------------0--2------|2----------- 2--2----3-------2-|
E|3------------3--3--------------|-------------------------------|


  Csus2                           E
e|------- ------- ------- -------|------- ------- ------- -------|
B|3-------3-------3-------3------|0-------0-------0--------------|
G|0-------0-------0-------0------|1-------1-------1--------------|
D|2-------2-------2-------2------|2-------2-------2--------------|
A|3------------3----------3------|2------------------------------|
E|---------------------3---------|--------4-------0--------------|

 Verse3


  A       A/Ab    F#m7    A/E     D6              E7sus4  E7
e|------- ------- ------- -------|------- ------- ------- -------|
B|2-------2-------2-------2------|0-------0-------0-------0------|
G|2-------2-------2-------2------|2-------2-------2-------1------|
D|2-------2-------2-------2------|0-------0-------0-------0------|
A|0------------------------------|--------2----------------------|
E|--------4-------2-------0------|----------------0-------0------|


  A       A/Ab    F#m7    A/E     Am
e|------- ------- ------- -------|0------ 0------ 0------ 0------|
B|2-------2-------2-------2------|1-------1-------1-------1------|
G|2-------2-------2-------2------|2-------2-------2-------2------|
D|2-------2-------2-------2------|2-------2-------2-------2------|
A|0------------------------------|0------------------------------|
E|--------4-------2-------0------|-------------------------------|


  Am6                             Fmaj7
e|0------ 0------ 0------ 0------|0------ 0------ 0------ 0------|
B|1-------1-------1-------1------|1-------1-------1-------1------|
G|2-------2-------2-------2------|2-------2-------2-------2------|
D|2-------2-------2-------2------|2-------2-------2-------2------|
A|-------------------------------|-------------------------------|
E|2------------------------------|1------------------------------|


  E7sus4          E7              E7sus4          E7
e|0------ 0------ 0------ 0------|0------ 0------ 0------ 0------|
B|0-------0-------0-------0------|0-------0-------0-------0------|
G|2-------2-------1-------1------|2-------2-------1-------1------|
D|0-------0-------0-------0------|0-------0-------0-------0------|
A|-------------------------------|-------------------------------|
E|0-------0-------0-------0------|0-------0-------0-------0------|

Solo

  A       A/Ab    F#m7    A/E     D6              E7sus4  E7
e|------- ------- ------- -------|------- ------- ------- -------|
B|2-------2-------2-------2------|0-------0-------0-------0------|
G|2-------2-------2-------2------|2-------2-------2-------1------|
D|2-------2-------2-------2------|0-------0-------0-------0------|
A|0------------------------------|--------2----------------------|
E|--------4-------2-------0------|----------------0-------0------|


  A       A/Ab    F#m7    A/E     Am
e|------- ------- ------- -------|0------ 0------ 0------ 0------|
B|2-------2-------2-------2------|1-------1-------1-------1------|
G|2-------2-------2-------2------|2-------2-------2-------2------|
D|2-------2-------2-------2------|2-------2-------2-------2------|
A|0------------------------------|0------------------------------|
E|--------4-------2-------0------|-------------------------------|


  Am6                             Fmaj7
e|0------ 0------ 0------ 0------|0------ 0------ 0------ 0------|
B|1-------1-------1-------1------|1-------1-------1-------1------|
G|2-------2-------2-------2------|2-------2-------2-------2------|
D|2-------2-------2-------2------|2-------2-------2-------2------|
A|-------------------------------|-------------------------------|
E|2------------------------------|1------------------------------|


  E7sus4          E7              D
e|0------ 0------ 0------ 0------|------- ------- ------- -------|
B|0-------0-------0-------0------|3----0-------------------------|
G|2-------2-------1-------1------|2-------2----------------------|
D|0-------0-------0-------0------|0-------0----4--0--------------|
A|-------------------------------|----------------0--------------|
E|0------------0--------0--------|-------------------------------|


 Middle eight

  G5                              G
e|------- ------- ------- -------|------- ------- ------- -------|
B|3-------3-------3-------3------|3-------3-------3-------3------|
G|0-------0-------0-------0------|0-------0-------0-------0------|
D|0-------0-------0-------0------|0-------0-------0-------0------|
A|-------------------------------|2----------- 2----------0----2-|
E|3------------3-------3---------|---------------------3---------|


  Csus2                           Cadd9
e|------- ------- ------- -------|------- ------- ------- -------|
B|3-------3-------3--------------|3------------3----------3------|
G|0-------0-------0--------------|0------------0----------0------|
D|---------------------0--2----3-|2------------2-------2--0------|
A|3------------3-----------------|3-------3-------3-------3----3-|
E|-------------------------------|-------------------------------|

  G5                              G
e|------- ------- ------- -------|------- ------- ------- -------|
B|3-------3-------3-------3------|3-------3-------3--------------|
G|0-------0-------0-------0------|0-------0----0--0--------------|
D|0-------0-------0-------0------|0----0--0-------0--------------|
A|-----2-------------------------|2-------2--- ---2-------2------|
E|3------------3-----------------|-------------------------------|


  C                                 E
e|------- ------- ------- -------|------- ------- ------- -------|
B|1-------3-------3--------------|0-------0-------0--------------|
G|0-------0----0--0--------------|1-------1-------1--------------|
D|2----2--2-------2--------------|2-------2-------2--------------|
A|3-------3-------3--------------|2------------------------------|
E|---------------------3---------|--------4-------0--------------|




 Verse4


  A       A/Ab    F#m7    A/E     D6              E7sus4  E7
e|------- ------- ------- -------|------- ------- ------- -------|
B|2-------2-------2-------2------|0-------0-------0-------0------|
G|2-------2-------2-------2------|2-------2-------2-------1------|
D|2-------2-------2-------2------|0-------0-------0-------0------|
A|0------------------------------|--------2----------------------|
E|--------4-------2-------0------|----------------0-------0------|


  A       A/Ab    F#m7    A/E     Am
e|------- ------- ------- -------|0------ 0------ 0------ 0------|
B|2-------2-------2-------2------|1-------1-------1-------1------|
G|2-------2-------2-------2------|2-------2-------2-------2------|
D|2-------2-------2-------2------|2-------2-------2-------2------|
A|0------------------------------|0------------------------------|
E|--------4-------2-------0------|-------------------------------|


  Am6                             Fmaj7
e|0------ 0------ 0------ 0------|0------ 0------ 0------ 0------|
B|1-------1-------1-------1------|1-------1-------1-------1------|
G|2-------2-------2-------2------|2-------2-------2-------2------|
D|2-------2-------2-------2------|2-------2-------2-------2------|
A|-------------------------------|-------------------------------|
E|2------------------------------|1------------------------------|


  E7sus4          E7              E7sus4          E7
e|0------ 0------ 0------ 0------|0------ 0------ 0------ 0------|
B|0-------0-------0-------0------|0-------0-------0-------0------|
G|2-------2-------1-------1------|2-------2-------1-------1------|
D|0-------0-------0-------0------|0-------0-------0-------0------|
A|-------------------------------|-------------------------------|
E|0------------0-------0---------|0------------0-----------------|


 Verse5

  A       A/Ab    F#m7    A/E     D6              E
e|------- ------- ------- -------|------- ------- ------- -------|
B|2-------2-------2-------2------|0-------0----------------------|
G|2-------2-------2-------2------|2-------2-------1-------1------|
D|2-------2-------2-------2------|0-------0-------2-------2------|
A|0------------------------------|--------2-----------2--------2-|
E|--------4-------2-------0------|----------------0-------0------|


  A       A/Ab    F#m7    A/E     Am
e|------- ------- ------- -------|0------ 0------ 0------ 0------|
B|2-------2-------2-------2------|1-------1-------1-------1------|
G|2-------2-------2-------2------|2-------2-------2-------2------|
D|2-------2-------2-------2------|2-------2-------2-------2------|
A|0------------------------------|0------------------------------|
E|--------4-------2-------0------|-------------------------------|


  Am6                             Fmaj7
e|0------ 0------ 0------ 0------|0------ 0------ 0------ 0------|
B|1-------1-------1-------1------|1-------1-------1-------1------|
G|2-------2-------2-------2------|2-------2-------2-------2------|
D|2-------2-------2-------2------|2-------2-------2-------2------|
A|-------------------------------|-------------------------------|
E|2------------------------------|1-------1-------1-------1------|


  Esus4           E               D
e|------- ------- ------- -------|------- ------- ------- -------|
B|0-------0-------0-------0------|3----0-------------------------|
G|2-------2-------1-------1------|2-------2----------------------|
D|2-------2-------2-------2------|0-------0----4--0--------------|
A|--------------2----------------|----------------0--------------|
E|0-------0-------0-------0------|-------------------------------|




 Middle eight

  G5                              G
e|------- ------- ------- -------|------- ------- ------- -------|
B|3-------3-------3-------3------|3-------3-------3-------3------|
G|0-------0-------0-------0------|0-------0-------0-------0------|
D|0-------0-------0-------0------|0-------0-------0-------0------|
A|-------------------------------|2----------- 2--2-------0----2-|
E|3------------3--3----3--3----3-|---------------------3---------|


  Cadd9
e|------- ------- ------- -------|------- ------- ------- -------|
B|3-------3-------3--------------|3-------3-------3-------3------|
G|0-------0-------0--------------|0-------0-------0-------0------|
D|2-------2-------2--------------|2-------2-------2-------2------|
A|3------------3----------0----2-|3-------3-------3-------3------|
E|---------------------3---------|-----3-------3-------3-------2-|

  G5                              G
e|------- ------- ------- -------|------- ------- ------- -------|
B|3-------3-------3-------3------|3-------3-------3--------------|
G|0-------0-------0-------0------|0-------0----0--0--------------|
D|0-------0-------0-------0------|0----0--0-------0--------------|
A|-----2-------------------------|2-------2--- ---2-------2------|
E|3------------3-----------------|-------------------------------|


  C                               E
e|------- ------- ------- -------|------- ------- ------- -------|
B|1-------3-------3--------------|0-------0-------0--------------|
G|0-------0----0--0--------------|1-------1-------1--------------|
D|2----2--2----------------------|2-------2-------2--------------|
A|3-------3-------3-------3------|-----2-------2-----------------|
E|-------------------------------|--------4-------0--------------|

Coda

  A
e|------- ------- ------- -------|------- ------- ------- -------|
B|2-------2-------2-------2------|5-------5-------5-------5------|
G|2-------2-------2-------2------|2-------2-------2-------2------|
D|2-------2-------2-------2------|2-------2-------2-------2------|
A|0------------0--0-------0------|4------------4--4----0--4------|
E|---------------------0---------|-------------------------------|


  D
e|2------ 2------ 2------ 2------|2------ 2------ 2------ 2------|
B|3-------3-------3-------3------|3-------3-------3-------3------|
G|2-------2-------2-------2------|2-------2----0--2-------2------|
D|0-------0-------0-------0------|0----2--4------------4--0------|
A|-------------0---------------0-|-------------------------------|
E|-------------------------------|-------------------------------|


  A
e|------- ------- ------- -------|------- ------- ------- -------|
B|2-------2-------2-------2------|5-------5-------5-------5------|
G|2-------2-------2-------2------|2-------2-------2-------2------|
D|2-------2-------2-------2------|2-------2-------2-------2------|
A|0------------0--0-------0----0-|4------------4--4----0--4----0-|
E|---------------------0---------|-------------------------------|


  D
e|2------ 2------ 2------ 2------|2------ 2------ 2------ 2------|
B|3-------3-------3-------3------|3-------3-------3-------3------|
G|2-------2-------2-------2----0-|2-------2-------2-------2------|
D|0------------0--0----2--4------|------------------------4------|
A|-------------------------------|0-------0-------0-----0--------|
E|-------------------------------|------------------------2------|


  A  ¨¨¨¨¨¨¨¨¨¨¨¨¨¨¨¨¨¨¨¨¨¨¨¨¨¨¨¨¨¨¨¨¨¨¨¨¨¨¨¨¨¨¨¨¨¨¨¨¨¨¨¨¨¨¨¨¨¨¨¨
e|------- ------- ------- -------|------- ------- ------- -------|
B|2------------------------------|-------------------------------|
G|2------------------------------|-------------------------------|
D|2------------------------------|-------------------------------|
A|0------------------------------|-------------------------------|
E|-------------------------------|-------------------------------|


        B  Bend
        R  Release
        /  slide up
        \  slide down
        H  hammer-on
        P  pull-off
        ~  vibrato
        +  harmonic
        x  Mute note
        . - play note like a dot in standard notation
        ^ - ties two notes together


----------------------------------------
Sargent Pepper's Lonely Hearts Club Band
----------------------------------------

Tabbed by:PJVillanueva


It was twenty years ago today,
Sgt. Pepper told the band to play
They've been going in and out of style
But they're guaranteed to raise a smile.
So may I introduce to you
The act you've known for all these years,
Sgt. Pepper's Lonely Hearts Club Band.
We're Sgt. Pepper's Lonely Hearts Club Band,
We hope you will enjoy the show,
Sgt. Pepper's Lonely Hearts Club Band,
Sit back and let the evening go.
Sgt. Pepper's lonely, Sgt. Pepper's lonely,
Sgt. Pepper's Lonely Hearts Club Band.
It's wonderful to be here,
It's certainly a thrill.
You're such a lovely audience,
We'd like to take you home with us,
We'd love to take you home.
I don't really want to stop the show,
But I thought that you might like to know,
That the singer's going to sing a song,
And he wants you all to sing along.
So let me introduce to you
The one and only Billy Shears
And Sgt. Pepper's Lonely Hearts Club Band.


  A7                                A7-9
E|----------------|----------------|--------8-------|----------------|
B|----------------|--------5-------|--5-----------8-|--------8-------|
G|--------6-----6-|----------------|6---------------|----------------|
D|5---------------|----------------|5---------------|----------------|
A|----7-----------|----------------|----------------|----------------|
E|5---------------|----------------|5---------------|----------------|

E|----------------|----------------|----------------|----------------|
B|----------------|--8-1010--------|----------------|--8-10----------|
G|----------------|9---------------|----------------|9---------------|
D|----------------|----------------|----------------|----------------|
A|----------------|----------------|----------------|----------------|
E|----------------|----------------|----------------|----------------|


  C7                           G7                 X  X   X X   X X
E|----------------|----------------|----------------|----------------|
B|----------------|3B5R3---1---0---|----------------|----------------|
G|---3------------|------------0---|----------------|----------------|
D|----------------|------------3---|----------------|----------------|
A|3---------------|----------------|----------------|----------------|
E|----------------|------------3---|----------------|----------------|
                                                                 It was
E|--------------8-|----10----------|----------------|----------------|
B|----------8-10--|--------8\6-8---|----------------|----------------|
G|--------9-------|----------------|7---------------|----------------|
D|----------------|----------------|----------------|----------------|
A|----------------|----------------|----------------|----------------|
E|----------------|----------------|----------------|----------------|

  G7            A7                  C7            G7
E|----------------|----------------|----------------|----------------|
B|--------3-------|----------------|--------1-------|--3-3---3-------|
G|--------4-------|--------6-------|--------3-------|--4-4---3-------|
D|--------3-------|--------5-------|--------2-------|--3-3---3-------|
A|----------------|--------7-------|3---3-----------|----------------|
E|3-------------5-|--5-5-----------|--------------3-|----------------|
twenty years ago today,    Sgt.Pepper told the band to play They've been

                A7                  C7               G7
E|----------------|----------------|----------------|------------------|
B|----------------|----------------|------------1---|--------3---------|
G|--------4-------|----------------|--3---------3---|--4---------------|
D|--------3-------|----------------|--2---------2---|--3---------------|
A|5---5---------7-|--7-7-----------|3---------------|------------------|
E|3---3---------5-|--5-5-----------|----------------|3-------------3---|
going in and out of style    But they're guaranteed to raise a smile So

  A7                                C7
E|----------------|--------5-------|----------------|----------------|
B|--------5-------|--------5-------|--------1-----1-|--------1-------|
G|--------6-------|--------6-------|--------3-----3-|--------3-------|
D|5-5-5---5-----5-|--5-5---5-------|--------2-----2-|--------2-------|
A|7-7-7---------7-|--7-7---7-------|3---------------|3---------------|
E|5-5-5-----------|--5-5---5-------|----------------|----------------|
may I introduce to you      the act you've known for all these years

  G7               C7               G7
E|----------------|----------------|----------------|----------------|
B|----------------|--------1-------|----------------|--------3-------|
G|--------4-------|--------3-------|--------4-------|4-------4-------|
D|3-------3-------|--------2-------|--------3-------|3-------3-------|
A|5---------------|3---------------|--------5-------|5---------------|
E|3---------------|----------------|3---------------|----------------|
  Sgt. Pepper's   Lonely Hearts Club Band

  C       C7  C6   C           C7   F          Fsus4 F
E|3-------6---5---|3-----------3---|1-------1-------|1---------------|
B|5---------------|----5-------5---|1---1-----------|1---------------|
G|5---------------|--------5---3---|2-------2---3---|----2-------2---|
D|----------------|----------------|----------------|--------3-------|
A|----------------|----------------|----------------|----------------|
E|----------------|----------------|----------------|----------------|


  C           C7   C6  C Csus4 C    D
E|3-------8---6---|5---------------|------------5---|8-------------5-|
B|5-------5---5---|5---8---6---5---|----5---7-------|7-----5-7---7---|
G|5-------5---5---|5---------------|7---------------|7P6H7---7-7-----|
D|----------------|----------------|----------------|----------------|
A|----------------|----------------|----------------|----------------|
E|----------------|----------------|----------------|----------------|

E|--------------5-|10--------------|
B|7-----5-7---7---|10--------------|
G|7P6H7---7-7-----|----------------|
D|----------------|----------------|
A|----------------|----------------|
E|----------------|----------------|
                              We're

  G5               Bb5              C7               G5
E|----------------|----------------|----------------|----------------|
B|----------------|----------------|----------------|----------------|
G|----------------|3---3-----------|3---3-----------|----------------|
D|5---5-----------|3---3-----------|2---2-----------|5---5-----------|
A|5---5-----------|1---1-----------|3---3-----------|5---5-----------|
E|3---3-----------|----------------|----------------|3---3-----------|
  Sgt.Pepper's     Lonely     Hearts   Club      Band             We
E|----------------|----------------|----------------|----------------|
B|----------------|---------6------|--------6-------|--------6-------|
G|--5B7R5B7R5-----|---------5------|----------------|----------------|
D|----------------|----------------|----------------|----------------|
A|----------------|----------------|----------------|----------------|
E|----------------|----------------|----------------|----------------|

  C7                             F# G             F# G           F#
E|----------------|----------------|----------------|----------------|
B|----------------|----------------|----------------|----------------|
G|3---3-----------|3---3-----------|----------------|----------------|
D|2---2-----------|2---2---------4-|5---5---5---5\4-|5---5---5---4---|
A|3---3-----------|3---3---------4-|5---5---5---5\4-|5---5---5---4---|
E|----------------|--------------2-|3---3---3---3\2-|3---3---3---2---|
  hope you will enjoy      the show
E|----------------|----------------|----------------|----------------|
B|1-------1-------|1-------1-------|----------------|----------------|
G|3-------3-------|3-------3-------|4-------4-----4-|--4-4---4---4-3-|
D|2-------2-------|2-------2-------|3-------3-----3-|--3-3---3---3-2-|
A|3-------3-------|3-------3-------|5-------5-----5-|--5-5---5---5-4-|
E|----------------|----------------|3-------3-----3-|--3-3---3---3-2-|

  G5               Bb5              C7               G5
E|----------------|----------------|----------------|----------------|
B|----------------|----------------|----------------|----------------|
G|----------------|3---3-----------|3---3-----------|----------------|
D|5---5-----------|3---3-----------|2---2-----------|5---5-----5-5---|
A|5---5-----------|1---1-----------|3---3-----------|5---5-----5-5---|
E|3---3-----------|----------------|----------------|3---3-----3-3---|
  Sgt.Pepper's     Lonely     Hearts   Club      Band              Sit
E|----------------|----------------|----------------|----------------|
B|--------6-------|----------------|----------------|----6-----------|
G|----------------|-----5B7R5B7R5B7|------------5B7R|5-------5-------|
D|----------------|----------------|----------------|----------------|
A|----------------|----------------|----------------|----------------|
E|----------------|----------------|----------------|----------------|

  A5                                D7
E|----------------|----------------|----------------|----------------|
B|----------------|----------------|1---1-----------|----------------|
G|----------------|----------------|2-------2-------|----------------|
D|7---7---7-----7-|7-----7-7-------|0-----------4---|0---------------|
A|7---7---7-----7-|7-----7-7-------|----------------|----------------|
E|5---5---5-----5-|5-----5-5-------|----------------|----------------|
  back and let the evening       go
E|----------------|----------------|----------------|----------------|
B|----------------|----------------|3---------------|----------------|
G|6-------6-----6-|--------6-------|5---------------|----------------|
D|5-------5-----5-|----5---5-------|4---------------|----------------|
A|7-------7-----7-|----7---7-------|5---------------|----------------|
E|5-------5-----5-|----5---5-------|----------------|----------------|

  C7                                G7
E|----------------|----------------|----------------|----------------|
B|1-------1---1---|1-------1-------|----------------|--------5-------|
G|3-------3---3---|3-------3-------|--------4-------|----4-----------|
D|2-------2---2---|2-------2-------|3-------3-----3-|----------------|
A|3-------3---3---|3-------3-------|5---------------|----------------|
E|----------------|----------------|3---------------|3---------------|
  Sgt.Pepper's     Lonely         Sgt.      Pepper's Lonely         Sgt.

  A7                           C7               G7
E|----------------|----------------|----------------|----------------|
B|----------------|------------1---|----1-------3---|----3---3-------|
G|-------6--------|6-----------3---|----3-------4---|----4---4-------|
D|---5---5--------|5-----------2---|----2-------3---|----3---3-------|
A|---7------------|------------3---|----3-----------|----------------|
E|5---------------|----------------|------------3---|----3---3-------|
         Pepper's  Lonely       Hearts    Club   Band              It's

  C7                                F7
E|----------------|----------------|----------------|----------------|
B|--------1-----1-|--------1-------|--------------1-|----------------|
G|--------3-----3-|--------3-------|---------2----2-|----------------|
D|--------2-----2-|--------2-------|---------1------|----------------|
A|--------3-----3-|--------3-------|---------3------|----------------|
E|----------------|----------------|---------1------|----------------|
  wonderful   to   be here     It's certainly   a    thrill     You're
E|8---------------|----------------|----------------|----------------|
B|5---------------|----------------|6---------------|----------------|
G|5---------------|----------------|5---------------|----------------|
D|----------------|----------------|7---------------|----------------|
A|----------------|----------------|----------------|----------------|
E|----------------|----------------|----------------|----------------|


  C                                 D
E|8---------------|----------------|10------10------|----------------|
B|5---------------|----------------|----10------10--|----10------10--|
G|5---------------|----------------|-7-------7------|-7------11------|
D|----------------|----------------|-----7-------7--|-----7-------7--|
A|----------------|----------------|----------------|-5-------9------|
E|----------------|----------------|----------------|----------------|
  such a  lovely   audience    We'd like to take you home with us, We'd


E|----------------|10--------------|
B|------------10--|----------------|
G|7---9---11------|-7--------------|
D|-------------7--|----------------|
A|5---7----9------|----------------|
E|----------------|----------------|
  love to take you home       I don't

  G7               A7               C7               G7
E|----------------|----------------|----------------|----------------|
B|---------3------|----------------|---------1------|--------3-------|
G|---------4------|--------6-------|---------3------|--4-------------|
D|---------3------|--5-------------|---------2------|--3-------------|
A|---------5------|--7-------------|3---------------|----------------|
E|3---------------|5---------------|----------------|3---------------|
really want to stop the show, But I thought you might like to know that the
E|----------------|----5-----------|----------------|----3-----------|
B|----------------|----------------|----------------|----------------|
G|---------------/|6---------------|----------------|----------------|
D|----------------|----------------|----------------|----------------|
A|----------------|----------------|----------------|----------------|
E|----------------|----------------|----------------|----------------|

                   A7               C7               G7
E|----------------|----------------|----------------|----------------|
B|----------------|--------5-------|----------------|----------------|
G|--------4-------|--6-------------|----3-----------|--------4-------|
D|--------3-----3-|--5-------------|----------0-----|--3-------------|
A|--------5-------|----------------|3---------------|--5-------------|
E|3---3----------/|5---5-----------|----------------|3---------------|
singer's going to sing a song and he wants you all to sing along  So
E|----------------|----5-----------|----------------|----3-----------|
B|----------------|----------------|----------------|----------------|
G|---------------/|6---------------|----------------|----------------|
D|----------------|----------------|----------------|----------------|
A|----------------|----------------|----------------|----------------|
E|----------------|----------------|----------------|----------------|

  A7                                C7
E|----------------|----------------|----------------|----------------|
B|----------------|----------------|--------1-----1-|--------1-------|
G|----------------|----------------|--------3-----3-|--------3-------|
D|--------5-----5-|---------5------|--------2-----2-|--------2-------|
A|--------7-----7-|---------7------|3---------------|3-------3-------|
E|5-----5-5---5-5-|---------5------|----------------|----------------|
let me introduce to you         the one and only Billy Shears     and
E|--------5-------|----5---5-------|----------------|----8---8---10--|
B|----------------|--5-------------|----------------|----------------|
G|----------------|----------------|----------------|----------------|
D|----------------|----------------|----------------|----------------|
A|----------------|----------------|----------------|----------------|
E|----------------|----------------|----------------|----------------|

  G7               C7               G7
E|----------------|----------------|----------------|----------------|
B|----------------|----------------|----------------|----------------|
G|4-------4-------|3-----3---3-----|4-------4-------|4---------------|
D|3-------3-------|2-----2---2-----|3-------3-------|3---------------|
A|5-------5-------|3-----3---3-----|5-------5-------|5---------------|
E|3-------3-------|----------------|3-------3-------|3---------------|
  Sgt.   Pepper's  Lonely Hearts Club Band
E|10--------------|----------------|----------------|----------------|
B|----------------|----------------|----------------|----------------|
G|----------------|----------------|----------------|----------------|
D|----------------|----------------|----------------|----------------|
A|----------------|----------------|----------------|----------------|
E|----------------|----------------|----------------|----------------|

  (.
  C
E|3---------------|----------------|----------------|----------------|
B|5---------------|----------------|----------------|----------------|
G|5---------------|----------------|----------------|----------------|
D|5---------------|----------------|----------------|----------------|
A|3---------------|----------------|3---------------|----------------|
E|--------6-------|5-------3-------|--------6-------|5-------3-------|...


As you all know, this ending is linked to "With a little help from my
friends" by a small passage. You can find it in the other tab.


        B  Bend
        R  Release
        /  slide up
        \  slide down
        H  hammer-on
        P  pull-off
        ~  vibrato
        +  harmonic
        x  Mute note
        . - play note like a dot in standard notation
        ^ - ties two notes together


----------------------------------
With a Little Help From My Friends
----------------------------------

What would you think if I sang out of tune,
Would you stand up and walk out on me.
Lend me your ears and I'll sing you a song,
And I'll try not to sing out of key.

I get by with a little help from my friends,
I get high with a little help from my friends,
Going to try with a little help from my friends.

What do I do when my love is away.
(Does it worry you to be alone)
How do I feel by the end of the day
(Are you sad because you're on your own)
No I get by with a little help from my friends,
Do you need anybody,
I need somebody to love.
Could it be anybody
I want somebody to love.
Would you believe in a love at first sight,
Yes I'm certain that it happens all the time.
What do you see when you turn out the light,
I can't tell you, but I know it's mine.
Oh I get by with a little help from my friends,
Do you need anybody,
I just need somebody to love,
Could it be anybody,
I want somebody to love.
I get by with a little help from my friends,
Yes I get by with a little help from my friends,
With a little help from my friends.


  C                           D
e|0----- 0----- 0----- 0-----|2----- 2----- 2----- 2-----|
B|1------1------1------1-----|3------3------3------3-----|
G|0------0------0------0-----|2------2------2------2-----|
D|---------------------------|0------0------0------0-----|
A|3------3------3------3-----|---------------------------|
E|---------------------------|---------------------------|
  Bi..........................lly........................

  E
e|4----- ------ 0-0--- ----0-|--0--- ----0- --0--- ------|
B|5-------------0------0---0-|-------0------4------4-----|
G|4------4------8----------8\|6------6------4------4-----|
D|---------------------------|---------------------------|
A|---------------------------|---------------------------|
E|0--------------------------|---------------------------|
  Shears............................

  E             B             F#m
e|4----- 4----- ------ ------|2----- 2----- 2----- 2-----|
B|5------5------4------4-----|2------2------2------2-----|
G|4------4------4------4-----|2------2------2------2-----|
D|6-------------4------4-----|---------------------------|
A|7-------------6------------|4--------------------------|
E|--------------7------------|--------------2------------|
 What would you think If I sang out of tune? Would you stand

                B             E
e|2----- 2----- 2----- 2-----|4----- 4----- 4----- 4-----|
B|2------2------4------4-----|5------5------5------5-----|
G|2------2------4------4-----|4------4------4------4-----|
D|4--------------------------|-----------4---------------|
A|--------------2------------|------------------7--4-----|
E|---------------------------|0------------------------7-|
     up  and walk  out  on me?

                B             F#m
e|4----- 4----- 2----- 2-----|2----- 2----- 2----- 2-----|
B|5------5------4------4-----|2------2------2------2-----|
G|4------4------4------4-----|2------2------2------2-----|
D|---------------------------|------------------2--------|
A|--------------2------------|------------2H4------------|
E|0--------------------------|2--------------------------|
  Lend me your ears and I'll sing you a song,  and I'll try

                B             E
e|2----- 2----- 2----- 2-----|4----- 4----- 4----- 4-----|
B|2------2------4------4-----|5------5------5------5-----|
G|2------2------4------4-----|4------4------4------4-----|
D|---------------------------|-------2------2------2-----|
A|--------------2------------|---------------------------|
E|2--------------------------|0--------------------------|
     not to sing   out  of key           Oh     I  get  by

  D             A             E
e|2----- 2----- 0----- 0-----|4----- 4----- 4----- 4-----|
B|3------3------2------2-----|5------5------5------5-----|
G|2------2------2------2-----|4------4------4------4-----|
D|0------0-------------------|---------------------------|
A|--------------0------0-----|---------------------------|
E|---------------------------|0------0------0------0-----|
  with a little help from my friends            I  get  high

  D             A             E
e|2----- 2----- 0----- 0-----|4----- 4----- 4----- 4-----|
B|3------3------2------2-----|5------5------5------5-----|
G|2------2------2------2-----|4------4------4------4-----|
D|0------0-------------------|2------0-------------------|
A|--------------0------0-----|--------------4------2-----|
E|---------------------------|---------------------------|
  with a little help from my friends               going to
  A                           E
e|0----- 0----- 0----- 0-----|4----- 4----- 4----- 4-----|
B|2------2------2------2-----|5------5------5------5-----|
G|2------2------2------2-----|4------4------4------4-----|
D|--------------2------------|----2--0-------------------|
A|0------4-------------4---2-|--------------4------2---0-|
E|---------------------------|0--------------------------|
  try with a little help from my friends
e|------ ------ ------ ------|----7\ 5----- 4----- ------|
B|---------------------------|----9\-7------5------7-P-5-|
G|---------------------------|---------------------4-----|
D|---------------------------|---------------------------|
A|---------------------------|---------------------------|
E|---------------------------|---------------------------|

  (.
  B
e|2----- ------ ------ ------|------ ------ ------ ------|
B|4--------------------------|---------------------------|
G|4--------------------------|---------------------------|
D|---------------------------|---------------------------|
A|2--------------------------|---------------------------|
E|---------------------------|---------------------------|

e|------ ------ ------ ------|------ ------ ------ ------|
B|7--------------------------|---------------------------|
G|4--------------------------|---------------------------|
D|---------------------------|---------------------------|
A|---------------------------|---------------------------|
E|---------------------------|---------------------------|

  E             B             F#m
e|4----- 4----- 2----- 2-----|2----- 2----- 2----- 2-----|
B|5------5------4------4-----|2------2------2------2-----|
G|4------4------4------4-----|2------2------2------2-----|
D|---------------------------|-----------6------4--2-----|
A|--
Добавлено: 15.03.2012
Другие материалы по этой песне:
  • Аккорды и текст

Страница создана 15.03.2012
http://primanota.ru/beatles/1967-1970-disc-1-album-chords.htm
Привет, Гость.
Предлагаем пройти революционный курс по гитаре.
Подарок от PrimaNota.Ru, забирай!