PrimaNota.ru - самый крупный в мире бесплатный архив песенных текстов, аккордов, табулатур и нот


Beatfrog - Against It - бас-таба, видео

Регистрация Запомнить меня
Войти через:  Facebook Google Twitter Vk Yandex Mail.ru

Beatfrog - Against It - бас-таба, видео

Печатать
Просмотров: 23
Beatfrog - Against It


Intro/Verse

G|----------------------------------------------------|
D|----------------------------------------------------|
A|------5-6---5----3-5-3------------------------------|
E|---3----------6-------------------------------------|


Chorus

  3x                               1x
G|--------------------------------|-------------------|
D|--------------------------------|-------------------|
A|--------66--5-------55-55-------|------5-6----------|
E|---3-3-3-------6-6-6------------|---3------66778899-|


Bridge

  2x
G|----------------------------------------------------|
D|----------------------------------------------------|
A|--3-3-3-3-3-3-34-34--3-3-3-3------------------------|
E|-----------------------------00112233---------------|

  2x
G|----------------------------------------------------|
D|----------------------------------------------------|
A|--5-5-5-5-5-5-56-56--5-5-5-5------------------------|
E|-----------------------------55667788---------------|
Добавлено: 15.12.2015
Другие материалы по этой песне:
  • Аккорды и текст

Страница создана 15.12.2015
http://primanota.ru/beatfrog/against-it-chords.htm
Привет, Гость.
Предлагаем пройти революционный курс по гитаре.
Подарок от PrimaNota.Ru, забирай!