PrimaNota.ru - самый крупный в мире бесплатный архив песенных текстов, аккордов, табулатур и нот


Beatcivilian - Hold Up - таба, видео

Регистрация Запомнить меня
Войти через:  Facebook Google Twitter Vk Yandex Mail.ru

Beatcivilian - Hold Up - таба, видео

Печатать
Просмотров: 131
----------------------------------------------------------------------------
                             Hold Up - Beatcivilian
----------------------------------------------------------------------------
Tabbed by:kenny karsten
Email:thekenny220@hotmail.com



should be played on electric with a clean setting

Tuning:normal

main riff:
e|------------------------|
B|------------------------|
G|--5-7p5-5-----4-5p4-----|
D|-7-----7-7-7-5------7p5-|
A|7---------7-7-----------|
E|------------------------|

chorus riff:
e|--------------------------------|
B|----10----8-------10~-8~--8-----|
G|--9-9-7-9-7-9-----------9-7-9---|
D|7-9-7-7-9-5-9---77--55--9-5-9---|
A|7-7---5-7---7---77--77--7---7---|
E|5---------------55--55----------|

post chorus & bass solo variations:
e|----------------|----------------|
B|----------------|----------------|improvise a little in the bass solo
G|--5+---5--44---7|--55---5--44---4|(with flanger effect)
D|-7----7--5--5-5-|-7--7-7--5--5-5-|
A|7-------7----7--|7----7--7----7--|
E|----------------|----------------|

bridge/outro variations
e|----------------|10------7-------|
B|----------------|8-------8-------|
G|--55---5--44---4|----------------|
D|-7--7-7--5--5-5-|----------------|
A|7----7--7----7--|----------------|
E|----------------|----------------|


| /  slide up
| \  slide down
| h  hammer-on
| p  pull-off
| ~  vibrato
| +  cut short
| x  Mute note
============================================================================
Добавлено: 23.02.2012
Другие материалы по этой песне:
  • Аккорды и текст

Страница создана 23.02.2012
http://primanota.ru/beatcivilian/hold-up-chords.htm
Привет, Гость.
Предлагаем пройти революционный курс по гитаре.
Подарок от PrimaNota.Ru, забирай!