PrimaNota.ru - самый крупный в мире бесплатный архив песенных текстов, аккордов, табулатур и нот


Beatallica - The Thing That Should Not Let It Be - бас-таба, видео

Регистрация Запомнить меня
Войти через:  Facebook Google Twitter Vk Yandex Mail.ru

Beatallica - The Thing That Should Not Let It Be - бас-таба, видео

Печатать
Просмотров: 207
Well, This is the tabs for the TTTSNLIB Solo, you need to use Distortion on it

--------------------------|-------------------------|
-----14-17-14-17-14-----14|-------------------------|
--15-----------------15---|-----14-17-14-17-14----14|
--------------------------|--15-----------------15--|

--------------------------|-------------------------|
---------14----14---------|-----12-15-12-15-12----12|
--12--15----15----15-12-15|--13----------------13---|
--------------------------|-------------------------|

---------17--16--16-17-16-14--12|-14--12-14-12-10--9--10--12--10-12-10-9|
---14-17------------------------|---------------------------------------|
15------------------------------|---------------------------------------|
--------------------------------|---------------------------------------|

--10--9--7--|--5|
------------|---|
------------|---|
------------|---|

If there's any problem contac me: holaidiota@hotmail.es
Добавлено: 24.07.2012
Другие материалы по этой песне:
  • Аккорды и текст

Страница создана 24.07.2012
http://primanota.ru/beatallica/the-thing-that-should-not-let-it-be-chords.htm
Привет, Гость.
Предлагаем пройти революционный курс по гитаре.
Подарок от PrimaNota.Ru, забирай!