PrimaNota.ru - самый крупный в мире бесплатный архив песенных текстов, аккордов, табулатур и нот


Beatallica - Sgt Hetfields Motorbreath Pub Band - таба, видео

Регистрация Запомнить меня
Войти через:  Facebook Google Twitter Vk Yandex Mail.ru

Beatallica - Sgt Hetfields Motorbreath Pub Band - таба, видео

Печатать
Просмотров: 118
Beatallica
Sgt Hetfield's Motorbreath Pub Band
A Garage Dayz Nite
Originaly Tabbed by Krk


Beatallica - Jaymz Lennfield, Krk Hammetson, Kliff McBurtney, and Ringo Larz
www.beatallica.org



Please note, I did not tab this, it was Krk of Beatallica. This has been used with his
permission.




Guitar 1 (EADGBe) - "Jaymz"
Guitar 2 (EADGBe) - "Krk"
Bass 1 (EADG) - "Kliff"
Bass 2 (EADG) - "Lead Bass" 


INTRO    Timeing 4/4, 90 BPM
 Jaymz (Distortion)
 /E E E S S S  S  E E E   E E E S S S  S  E E E   E  E  E     S  S  S  S  E  S  S  E   W
|-----------------------|-----------------------|-------------------------------------|-----------|
|-----------------------|-----------------------|-------------------------------------|-----------|
|-----------------------|-----------------------|-------------------------------------|-----------|
|-7---------------------|-7---------------------|-10----------------------------------|-5---------|
|-7-7-7-7-7-7--7--7-7-7-|-7-7-7-7-7-7--7--7-7-7-|-10-10-10----10-10-10-10-10-10-10-x--|-5---------|
|-5-5-5-5-5-5--5--5-5-5-|-5-5-5-5-5-5--5--5-5-5-|-8--8--8-----8--8--8--8--8--8--8--x--|-3---------|
|   . . . . .  .  . . .     . . . . .  .  . . .      .  .  .  .  .  .  .  .  .
|Kliff (Distortion)
| E E E E   E     E E E   E E E E   E     E E E   E  E  E     E     E     E     E  E   H.  E E  
|-----------------------|-----------------------|-------------------------------------|-----------|
|-----------------------|-----------------------|-------------------------------------|-----------|
|-----------------------|-----------------------|-3--3--3-----3-----3-----3-----3--3--|-----------|
|-5-5-5-5---5-----5-5-5-|-5-5-5-5---5-----5-5-5-|-------------------------------------|-3-----10\-|
|
|Lead Bass (Distortion + Wah)
| H         S  S  E  Q    H         S  S  E  Q    Q     S  S  S  S  E     E  S  S  E    H. Q
|--------------12-14----|--------------12-14----|----------------17-------19----------|----0------|
|-----------14----------|-----------14----------|----------17-19-------------15-15-17-|-12\0------|
|-----------------------|-----------------------|-------19----------------------------|-----------|
|-----------------------|-----------------------|-------------------------------------|-----------|
 \

VERSE 1
 Jaymz (Distortion)
 /E E E S S E E E S S   E E E S S E E E S S   E E E S S E E E S S   E E E S S E E E S S
|---------------------|---------------------|---------------------|---------------------|
|---------------------|---------------------|---------------------|---------------------|
|---------------------|-5-5-----------------|---------------------|-5-5-----------------|
|-5-5-------7-7-------|-5-5-------5-5-------|-5-5-------7-7-------|-5-5-------5-5-------|
|-5-5-x-x-x-7-7-x-x-x-|-3-3-x-x-x-5-5-x-x-x-|-5-5-x-x-x-7-7-x-x-x-|-3-3-x-x-x-5-5-x-x-x-|
|-3-3-x-x-x-5-5-x-x-x-|-----x-x-x-3-3-x-x-x-|-3-3-x-x-x-5-5-x-x-x-|-----x-x-x-3-3-x-x-x-|
|
|Kliff (Distortion)
| E E E E   E E E E     E E E E   E E E E     E E E E   E E E E     E E E E   E E E E
|---------------------|---------------------|---------------------|---------------------|
|---------------------|---------------------|---------------------|---------------------|
|---------------------|-3-3-3-x-------------|---------------------|-3-3-3-x-------------|
|-3-3-3-x---5-5-5-x---|-----------3-3-3-x---|-3-3-3-x---5-5-5-x---|-----------3-3-3-x---|
 \
 /E S S E S S E S S E S S   E  S  S  E  S  S  E  S  S  S   S  E    E E E E E E E E   E E E E E E E E
|-------------------------|--------------------------------------|-----------------|-----------------|
|-------------------------|--------------------------------------|-----------------|-----------------|
|-------------------------|--------------------------------------|-----------------|-----------------|
|-7-----7-----7-----7-----|-10-------10-------10-------10--10-10-|-----5-5-5-5-5-5-|-----5-5-5-5-5-5-|
|-7-7-7-7-7-7-7-7-7-7-7-7-|-10-10-10-10-10-10-10-10-10-10--10-10-|-5-5-2-2-3-3-4-5-|-5-5-2-2-3-3-4-5-|
|-5-5-5-5-5-5-5-5-5-5-5-5-|-8--8--8--8--8--8--8--8--8--8---8--8--|-3-3-------------|-3-3-------------|
|   . .   . .   . .   . .      .  .     .  .     .  .        
| E E   E E   E E   E E     E  E     E  E     E  E     S S S  S   E E E E E E E E   E E E E E E E E
|-------------------------|-------------------------------------|-----------------|-----4-4-5-5-6-7-|
|-------------------------|--------------------------------5----|-----------------|---5-------------|
|-------------------------|-3--3-----3--3-----3--3-----3/5----5-|-----2-2-3-3-4-5-|-----------------|
|-7-7---7-7---7-7---7-7---|-------------------------------------|-3-3-------------|-3---------------|
 \

GUITAR & BASS DUET
 Jaymz (Distortion)
 /E E E  E  E  E  E  E    E  E  E  E  E  E  E  E    E  E  E  E  E  E  E  E    E     E  E  E  E     E     E     E
|-----------------------|-------------------------|-------------------------|----------------------------------------|
|-----------------------|-------------------------|-------------------------|----------------------------------------|
|-5-5-5--5--5--5--5--5--|-------------------------|-5--5--5--5--5--5--5--5--|-7--------7-----7-----------7-----------|
|-5-5-5--5--5--5--5--5--|-3--3--3--3--3--3--3--3--|-5--5--5--5--5--5--5--5--|-7-----7--7--7--7-----7-----7-----7-----|
|-3-3-3--3--3--3--3--3--|-3--3--3--3--3--3--3--3--|-3--3--3--3--3--3--3--3--|-5-----7--5--7--5-----7-----5-----7-----|
|-----------------------|-1--1--1--1--1--1--1--1--|-------------------------|-------5-----5--------5-----------5-----|
|
|Krk (Distortion + Wah)
| Q   E  E  E  E  E  E    E  E  H.                  Q     E  E  E  E  E  E    H              S  S  S  S  S  S  S  S  
|-----------------------|-------------------------|-------------------------|----------------------------------------|
|-----------------------|-------------------------|-------------------------|----------------------------------------|
|-----15-14-12----------|-------------------------|-------17-15-14----------|-------------------------11-14----11-14-|
|--------------14----14-|-15----15----------------|----------------17-15-14-|-12-------------12----12-------12-------|
|-15--------------15----|----15-------------------|-15----------------------|-------------------12-------------------|
|-----------------------|-------------------------|-------------------------|----------------------------------------|
|
|Kliff (Distortion)
| E E E  E  E  E  E  E    E  E  E  E  E  E  E  E    E  E  E  E  E  E  E  E    E     E  E  E  E     E     E     E
|-----------------------|-------------------------|-------------------------|----------------------------------------|
|-----------------------|-------------------------|-------------------------|----------------------------------------|
|-3-3-3--3--3--3--3--3--|-------------------------|-3--3--3--3--3--3--3--3--|-5--------5-----5-----------5-----------|
|-----------------------|-1--1--1--1--1--1--1--1--|-------------------------|-------5-----5--------5-----------5-----|
|
|Lead Bass (Distortion + Wah)
| W                       E  E  E  E  E  E  E  E    E  E  E  E  H             S  S  E  E  E  H
|-12--------------------|----------14-17-14----14-|----------17-17----------|----------------17---------------------|
|-----------------------|-15----15----------15----|-17-14-17----------------|----------16-19------------------------|
|-----------------------|----15-------------------|-------------------------|-17----17------------------------------|
|-----------------------|-------------------------|-------------------------|----17---------------------------------|
 \
 /E     E     E     E                 Q   E
|-------------------------------------------|
|-------------------------------------------|
|-7-----------7-----------------------7-----|
|-7-----7-----7-----7-----------------7-----|
|-5-----7-----5-----7-----------------5-----|
|-------5-----------5-----------------------|
|
| Q.                E                 Q   E     
|-------------------------------------------|
|-13----------------13b(15)r(13)b(15)-15\---|
|-------------------------------------------|
|-------------------------------------------|
|-------------------------------------------|
|-------------------------------------------|
|
| E     E     E     E                 Q   E
|-------------------------------------------|
|-------------------------------------------|
|-5-----------5-----------------------5-----|
|-------5-----------5-----------------------|
|
| S  S  S  S  S  S  S         S       Q   E
|-------------------------------------19\---|
|-------------16----16--------19------------|
|-17----17-19----17-------------------------|
|----17-------------------------------------|
 \

CHORUS
 Jaymz (Distortion)
 /E E   E    S      S E E   E         S S   E E   E        S  S E E   E     S  S   E E E S S E S S E S S   E E E S S   Q   E
|-----------------------------------------|--------------------------------------|-----------------------|-------------------|
|-----------------------------------------|--------------------------------------|-----------------------|-------------------|
|---------------------3-3-----------------|-5-5----------------------------------|-5-5-5-----5-----5-----|-------------------|
|-5-5-----------------3-3-----------------|-5-5-----------------5-5--------------|-5-5-5-x-x-5-x-x-5-x-x-|-5-5-5-------5---4-|
|-5-5---x----x------x-1-1---x---------x-x-|-3-3---x--------x--x-5-5---x-----x--x-|-3-3-3-x-x-3-x-x-3-x-x-|-5-5-5-x-x---5---4-|
|-3-3---x----x------x-------x---------x-x-|-------x--------x--x-3-3---x-----x--x-|-----------------------|-3-3-3-------3---2-|
|
|Krk (Distortion + Wah)
| Q     E.          S Q      E        E     Q     E        E    Q     E.       S   W                       Q   E E S S E E E
|-----------------------------------------|--------------------------------------|-----------------------|-------------------|
|----------------------------5pb6r(5)-----|--------------------------------------|-----------------------|-------------------|
|-------5b(6.5)r(5)-3---------------------|-------5pb6r(5)------------5pb6r(5)---|-----------------------|-------------------|
|-----------------------------------------|--------------------------------------|-----------------------|-----5~--5---5~==4-|
|-----------------------------------------|--------------------------------------|-----------------------|-------------------|
|-----------------------------------------|--------------------------------------|-----------------------|-------------------|
|
|Kliff (Distortion)
| E S S E.          S E S S E.          S   E S S E.          S E S S E.       S   E E E E   E E   E E     E E E E E   Q   E
|-----------------------------------------|--------------------------------------|-----------------------|-------------------|
|-----------------------------------------|--------------------------------------|-----------------------|-----------------4-|
|-----------------------------------------|--------------------------------------|-3-3-3-3---3-3---3-3---|-------------------|
|-3-3-3/15=========\3-6-6-6/15=========\6-|-8-8-8/18=========\8-3-3-3/15======\3-|-----------------------|-3-3-3-3-3---3-----|
 \
 /E E   E  S  S  E E   E        S S   E E   E S S E E E S S   E S S E S S E S S E S S   W
|-----------------------------------|-----------------------|-------------------------|---------------------|
|-----------------------------------|-----------------------|-------------------------|---------------------|
|----------------3-3----------------|-5-5-------------------|-------------------------|-7-------------------|
|-5-5------------3-3----------------|-5-5---------5-5-------|-7-----7-----7-----7-----|-7-------------------|
|-5-5---x--x--x--1-1---x--------x-x-|-3-3---x-x-x-5-5-x-x-x-|-7-x-x-7-x-x-7-x-x-7-x-x-|-5-------------------|
|-3-3---x--x--x--------x--------x-x-|-------x-x-x-3-3-x-x-x-|-5-x-x-5-x-x-5-x-x-5-x-x-|---------------------|
|
|
| E E Q          Q     E        E     W                       W                         E E  E  E  Q.   E
|-----------------------------------|-----------------------|-------------------------|---------------------|
|-------5pb6r(5)--------------------|-----------------------|-------------------------|---13-10-------------|
|----------------------5pb6r(5)-----|-----------------------|-------------------------|---------11----------|
|-5-5-------------------------------|-----------------------|-------------------------|------------12-------|
|-----------------------------------|-----------------------|-------------------------|---------------------|
|-----------------------------------|-----------------------|-------------------------|---------------------|
|                      *
|
| E S S E.      S E S S E.      S     E S S E. S  E E E E     E E   E E   E E   E E     H.           S E  S
|-----------------------------------|-----------------------|-------------------------|---------------------|
|-5---------------------------------|-----------------------|-------------------------|---------------------|
|-----------------------------------|-----------------------|-------------------------|-5------------5/17\5-|
|---3-3/10\====\6-6-6-6/15\======\6-|-8-8-8/18\8--3-3-3-3---|-5-5---5-5---5-5---5-5---|---------------------|
 \
 /E E E E E E E E   E E E E E E E E   E E E E E E E E   E E E E E E E E 
|-----------------|-----------------|-----------------|-----------------|
|-----------------|-----------------|-----------------|-----------------|
|-5---5---5---5---|-----------------|-----------------|-----------------|
|-5---5---5---5---|-5---5-------5---|-7---7---7---7-8-|---7---5---5-----|
|-3-3-3-3-3-3-3-3-|-5---5-------5---|-7---7---7---7-8-|---7---5-----5---|
|-----------------|-3-3-3-3-3-3-3-3-|-5-5-5-5-5-5-5-6-|---5---3---------|
|PM .   .   .   .     .   . . .   .     .   .   .
|Kliff (Distortion)
| E E E E E E E E   E E E E E E E E   E E E E E E E E   E E E E Q.    E
|-----------------|-----------------|-----------------|-----------------|
|-----------------|-----------------|-----------------|-----------------|
|-3-3-3-3-3-3-3-3-|-----------------|-----------------|-----------------|
|-----------------|-3-3-3-3-3-3-3-3-|-5-5-5-5-5-5-5-6-|---5---3-------3-|
 \
BRIDGE
 Jaymz (Distortion)
/E E E E E E E E   E E E E E E E E   E E E E E E E E   E E E E E E E E   
|-----------------|-----------------|-----------------|-----------------|
|-----------------|-----------------|-----------------|-----------------|
|-----------------|-----------------|-----------------|-7---7---7---7---|
|-5-5-5-5-5-5-5-5-|-----------------|-5-5-5-5-5-5-5-5-|-7-7-7-7-7-7-7-7-|
|-3-3-3-3-3-3-3-3-|-3-3-3-3-3-3-3-3-|-3-3-3-3-3-3-3-3-|-5-7-5-7-5-7-5-7-|
|-----------------|-1-1-1-1-1-1-1-1-|-----------------|---5---5---5---5-|
PM. . . . . . . .   . . . . . . . .   . . . . . . . . 
|Kliff (Distortion)
| E E E E E E E E   E E E E E E E E   E E E E E E E E   E E E E E E E E
|-----------------|-----------------|-----------------|-----------------|
|-----------------|-----------------|-----------------|-----------------|
|-3-3-3-3-3-3-3-3-|-----------------|-3-3-3-3-3-3-3-3-|-5---5---5---5---|
|-----------------|-1-1-1-1-1-1-1-1-|-----------------|---5---5---5---5-|
 \
 /E E E E H
|-----------|
|-----------|
|-7---7---7-|
|-7-7-7-7-7-|
|-5-7-5-7-5-|
|---5---5---|
|
| E E E E H
|-----------|
|-----------|
|-5---5---5-|
|---5---5---|
 \
 
VERSE 2
 Jaymz (Distortion)
 /E E E S S E E E S S   E E E S S E E E S S   E E E S S E E E S S   E E E S S E E E S S 
|---------------------|---------------------|---------------------|---------------------|
|---------------------|---------------------|---------------------|---------------------|
|---------------------|-5-5-----------------|---------------------|-5-5-----------------|
|-5-5-------7-7-------|-5-5-------5-5-------|-5-5-------7-7-------|-5-5-------5-5-------|
|-5-5-x-x-x-7-7-x-x-x-|-3-3-x-x-x-5-5-x-x-x-|-5-5-x-x-x-7-7-x-x-x-|-3-3-x-x-x-5-5-x-x-x-|
|-3-3-x-x-x-5-5-x-x-x-|-----x-x-x-3-3-x-x-x-|-3-3-x-x-x-5-5-x-x-x-|-----x-x-x-3-3-x-x-x-|
|
|Kliff (Distortion)
| E E E E   E E E E     E E E E   E E E E     E E E E   E E E E     E E E E   E E E E 
|---------------------|---------------------|---------------------|---------------------|
|---------------------|---------------------|---------------------|---------------------|
|---------------------|-3-3-x-x-------------|---------------------|-3-3-x-x-------------|
|-3-3-x-x---5-5-x-x---|-----------3-3-x-x---|-3-3-x-x---5-5-x-x---|-----------3-3-x-x---|
 \
 /E S S E S S E S S E S S   E  S  S  E  E  E  E     E   E     E E E E E E E E   E E E E E E E E
|-------------------------|---------------------------------|-----------------|-----------------|
|-------------------------|---------------------------------|-----------------|-----------------|
|-------------------------|---------------------------------|-----------------|-----------------|
|-7-----7-----7-----7-----|-10-------10-10-10-10----10--10--|-----5-5-5-5-5-5-|-----5-5-5-5-5-5-|
|-7-7-7-7-7-7-7-7-7-7-7-7-|-10-10-10-10-10-10-10----10--10--|-5-5-2-2-3-3-4-5-|-5-5-2-2-3-3-4-5-|
|-5-5-5-5-5-5-5-5-5-5-5-5-|-8--8--8--8--8--8--8-----8---8---|-3-3-------------|-3-3-------------|
|PM . .   . .   . .   . .      .  .
| E E   E E   E E   E E     E        E  E  E  E  E  S S S S   E E E E E E E E   E E E E E E E E
|-------------------------|---------------------------------|-----------------|-----4-4-5-5-6-7-|
|-------------------------|-----------------------------5---|-----------------|-5-5-------------|
|-------------------------|-3--------3--3--3--3--3--3/5---5-|-----2-2-3-3-4-5-|-----------------|
|-5-5---5-5---5-5---5-5---|---------------------------------|-3-3-------------|-----------------|
 \

END BRIDGE
 Jaymz (Distortion)
 /                                    __3__  __3__  __3__  __3__   __3__  __3__  __3__  __3__
| E E E E E E E E   E E E E E E E E   E E E  E E E  E E E  E E E   E E E  E E E  E E E  E E E
|-----------------|-----------------|----------------------------|----------------------------|
|-----------------|-----------------|----------------------------|----------------------------|
|-----------------|-----------------|-5-5-5--5-5-5--5-5-5--5-5-5-|-7-7-7--7-7-7--7-7-7--7-7-7-|
|-5-5-5-5-5-5-5-5-|-5-5-5-5-5-5-5-5-|-5-5-5--5-5-5--5-5-5--5-5-5-|-7-7-7--7-7-7--7-7-7--7-7-7-|
|-3-3-3-3-3-3-3-3-|-3-3-3-3-3-3-3-3-|-3-3-3--3-3-3--3-3-3--3-3-3-|-5-5-5--5-5-5--5-5-5--5-5-5-|
|-----------------|-----------------|----------------------------|----------------------------|
PM. . . . . . . .   . . . . . . . .
|Kliff (Distortion)
|                                     __3__  __3__  __3__  __3__   __3__  __3__  __3__  __3__
| E E E E E E E E   E E E E E E E E   E E E  E E E  E E E  E E E   E E E  E E E  E E E  E E E
|-----------------|-----------------|----------------------------|----------------------------|
|-----------------|-----5-5---------|--------5-5-5---------5-----|--------7-------------7-----|
|-3-3-3-3-3-3-3-3-|-3-3-3-3-3-3-3-3-|-3-3-3--3------3-3-3----3-3-|-5-5-5----5-5--5-5-5----5-5-|
|-----------------|-----------------|----------------------------|----------------------------|
 \
 /W
|---|
|---|
|-9-|
|-9-|
|-7-|
|-0-|
|
| W
|---|
|---|
|-7-|
|---|
 \

Key
---

h - Hammer On
p - Pull Off
b - Bend
pb- Pre bend
r - Release Bend
/\-slide into or out of
* - Artificial Harmonic
~ - Vibrato
. - Palm Mute
= - Hold note
x - muted
Добавлено: 01.05.2012
Другие материалы по этой песне:

Страница создана 16.04.2012
http://primanota.ru/beatallica/sgt-hetfields-motorbreath-pub-band-chords.htm
Привет, Гость.
Предлагаем пройти революционный курс по гитаре.
Подарок от PrimaNota.Ru, забирай!