PrimaNota.ru - самый крупный в мире бесплатный архив песенных текстов, аккордов, табулатур и нот


Beat Crusaders - Sweet Dreams - таба, видео

Регистрация Запомнить меня
Войти через:  Facebook Google Twitter Vk Yandex Mail.ru

Beat Crusaders - Sweet Dreams - таба, видео

Печатать
Просмотров: 158
sweet dreams


beat crusaders


TRANSCRIBED BY RUDY GUZMAN


guzman_84@hotmail.com




                                               
e:--------------------------|
B:--------------------------|
G:-999-----------9----------|
D:-999----7------9------7-7-|
A:-777----7------7------7-7-|
E:--------5-------------5-5-|

                                                x2
e:------------------------------------------------|
B:------------------------------------------------|
G:-99999999999999---------------------------------|
D:-99999999999999--999999999999999--7777777777777-|
A:-77777777777777--999999999999999--7777777777777-|
E:-----------------777777777777777--5555555555555-|

                                         x2
e:----------------------------------------|
B:-----------------------------------9-9--|
G:-----9-----8-----9-----8-----9-----8-8--|
D:-----9-----9-----9-----9-----9-----9-9--|
A:-----7-----7-----7-----7-----7-----7-7--|
E:-0-0---0-0---0-0---0-0---0-0----0-------|


   pick slide
e:------------------------------------------------------------|
B:------------------------------------------------------------|
G:------------------------------------------------------------|
D:------------------------------------------------------------|
A:-x\---------------------------------------------------------|
E:-x\---------------------------------------------------------|

  verse                                                     x2
e:------------------------------------------------------------|
B:------------------------------------------------------------|
G:-99999999999999---------------------------------------------|
D:-99999999999999--99999999999999--11-11-11-11-11-11-11-11-11-|
A:-77777777777777--99999999999999--11-11-11-11-11-11-11-11-11-|
E:-----------------77777777777777--9--9--9--9--9--9--9--9--9--|

                                         x2
e:----------------------------------------|
B:-----------------------------------9-9--|
G:-----9-----8-----9-----8-----9-----8-8--|
D:-----9-----9-----9-----9-----9-----9-9--|
A:-----7-----7-----7-----7-----7-----7-7--|
E:-0-0---0-0---0-0---0-0---0-0----0-------|


   pick slide
e:------------------------------------------------------------|
B:------------------------------------------------------------|
G:------------------------------------------------------------|
D:------------------------------------------------------------|
A:-x\---------------------------------------------------------|
E:-x\---------------------------------------------------------|

  verse                                                     
e:------------------------------------------------------------|
B:------------------------------------------------------------|
G:-99999999999999---------------------------------------------|
D:-99999999999999--99999999999999--11-11-11-11-11-11-11-11-11-|
A:-77777777777777--99999999999999--11-11-11-11-11-11-11-11-11-|
E:-----------------77777777777777--9--9--9--9--9--9--9--9--9--|

e:---------------------------------------------------------------|
B:---------------------------------------------------------------|
G:-99999999999999------------------------------------------------|
D:-99999999999999--99999999999999--777777777777-7-77777777777777-|
A:-77777777777777--99999999999999--777777777777-7-77777777777777-|
E:-----------------77777777777777--555555555555-5-55555555555555-|

                           x2
e:--------------------------|
B:--------------------------|
G:--------------9--9--------|
D:-6--6--7--7---9--9--9--9--|
A:-6--6--7--7---7--7--9--9--|
E:-4--4--5--5---------7--7--|


  gt1                                       
e:----------------------------------------|
B:-----------------------------------9-9--|
G:-----9-----8-----9-----8-----9-----8-8--|
D:-----9-----9-----9-----9-----9-----9-9--|
A:-----7-----7-----7-----7-----7-----7-7--|
E:-0-0---0-0---0-0---0-0---0-0----0-------|

  gt2
e:-4------4-------4------4------4------4-----|
B:---5------5-------5------5------5------5---|
G:-----4-------4------4------4------4------4-|
D:-------------------------------------------|
A:-------------------------------------------|
E:-------------------------------------------|

                              x2
e:-----------------------------|
B:-----------------------------|
G:-9---------------------------|
D:-9---------9---------7-------|
A:-7---------9---------7-------|
E:-----------7---------5-------|

e:------------|
B:------------|
G:------------|
D:-7777777777-|
A:-7777777777-|
E:-5555555555-|


e:--------------------------------------|
B:--------------------------------------|
G:---------------9999999999-------------|
D:--77777777777--9999999999--9999999999-|
A:--77777777777--7777777777--9999999999-|
E:--55555555555--------------7777777777-|

e:--------------------------------------------------|
B:--------------------------------------------------|
G:---------------------------9999999999-------------|
D:-66666666666--77777777777--9999999999--9999999999-|
A:-66666666666--77777777777--7777777777--9999999999-|
E:-44444444444--55555555555--------------7777777777-|

e:-----------------------------------------------|
B:-----------------------------------------------|
G:-999999999-------------------------------------|
D:-999999999--9999999999--7777777777--9999999999-|
A:-777777777--9999999999--7777777777--9999999999-|
E:------------7777777777--5555555555--7777777777-|

e:--------------------------------------------------|
B:--------------------------------------------------|
G:---------------------------9999999999-------------|
D:-66666666666--77777777777--9999999999--9999999999-|
A:-66666666666--77777777777--7777777777--9999999999-|
E:-44444444444--55555555555--------------7777777777-|

e:-----------------------------------------------|
B:-----------------------------------------------|
G:-999999999-------------------------------------|
D:-999999999--9999999999--7777777777--9999999999-|
A:-777777777--9999999999--7777777777--9999999999-|
E:------------7777777777--5555555555--7777777777-|

e:--------------------------------------------------|
B:--------------------------------------------------|
G:---------------------------9999999999-------------|
D:-66666666666--77777777777--9999999999--9999999999-|
A:-66666666666--77777777777--7777777777--9999999999-|
E:-44444444444--55555555555--------------7777777777-|

e:----------------------------------------|
B:-----------------------------------9-9--|
G:-----9-----8-----9-----8-----9-----8-8--|
D:-----9-----9-----9-----9-----9-----9-9--|
A:-----7-----7-----7-----7-----7-----7-7--|
E:-0-0---0-0---0-0---0-0---0-0----0-------|

   gt1
e:----------------------------------------|
B:-----------------------------------9-9--|
G:-----9-----8-----9-----8-----9-----8-8--|
D:-----9-----9-----9-----9-----9-----9-9--|
A:-----7-----7-----7-----7-----7-----7-7--|
E:-0-0---0-0---0-0---0-0---0-0----0-------|
   gt2
e:----------------------------------------|
B:----------------------------------------|
G:----------------------------------------|
D:-----------------------------------9-9--|
A:-2222222222222222222222222222222---7-7--|
E:-0000000000000000000000000000000--------|


hillo son mex

25/08/11
Добавлено: 24.10.2013
Другие материалы по этой песне:
  • Аккорды и текст

Страница создана 24.10.2013
http://primanota.ru/beat-crusaders/sweet-dreams-chords.htm
Привет, Гость.
Предлагаем пройти революционный курс по гитаре.
Подарок от PrimaNota.Ru, забирай!