PrimaNota.ru - самый крупный в мире бесплатный архив песенных текстов, аккордов, табулатур и нот


Beat Crusaders - Sasquatch - таба, видео

Регистрация Запомнить меня
Войти через:  Facebook Google Twitter Vk Yandex Mail.ru

Beat Crusaders - Sasquatch - таба, видео

Печатать
Просмотров: 108
sasquatch


beat crusaders


TRANSCRIBED BY RUDY GUZMAN


guzman_84@hotmail.com




                                               
e:----------------------------------------------------------------|
B:----------------------------------------------------------------|
G:----------------------------------------------------------------|
D:----------------------------------5-7-5-------------------------|
A:---3-5/7-7-7-5-7--------3-5/7-7-7--------7----3-5/7-7-7-5-7-----|
E:-5---------------8-5--5---------------------5---------------8-5-|

e:---------------------------------|
B:---------------------------------|
G:---------------------------------|
D:---------------------------------|
A:-3p2-----------3p2---------------|
E:-----5p3-5-5-4-----5p3-5-5-4-----|

e:---------------------------------------------------------------------|
B:------------------------------------8-8-10-8-------------------------|
G:---5-7/9-9-9-7-9---------5-7/9-9-9-----------9----5-7/9-9-9-7-9------|
D:-7---------------10-7--7------------------------7---------------10-7-|
A:---------------------------------------------------------------------|
E:---------------------------------------------------------------------|

  gt1
e:--------------------------------|
B:--------------------------------|
G:-5p4-------------5p4------------|
D:-----7p5--7-7-6------7p5--7-7-6-|
A:--------------------------------|
E:--------------------------------|

  gt2
e:-12\---------------------12\--------------------------------|
B:------------------------------------------------------------|
G:------------------------------------------------------------|
D:------------------------------------------------------------|
A:------------------------------------------------------------|
E:------------------------------------------------------------|

     sasquatch    sasquatch      sasquatch      
e:-----------------------------------------------------------4h5p4h5p4h5p4h5p4h5p4~~~|
B:-----------------------------------------5h6p5h6p5h6p5h6p5-------------------------|
G:------------6-6------------6-6-----------------------------------------------------|
D:-7----------7-7------------7-7-----------------------------------------------------|
A:-7----------7-7------------7-7-----------------------------------------------------|
E:-5----------5-5------------5-5-----------------------------------------------------|

    oh oh ohhhhh oh oh oh oh oh....
e:----------------------------------------------------------------|
B:----------------------------------------------------------------|
G:----------------------------------------------------------------|
D:----------------------------------5-7-5-------------------------|
A:---3-5/7-7-7-5-7--------3-5/7-7-7--------7----3-5/7-7-7-5-7-----|
E:-5---------------8-5--5---------------------5---------------8-5-|

   oh uh oh uh oohhhhhh oh
e:---------------------------------|
B:---------------------------------|
G:---------------------------------|
D:---------------------------------|
A:-3p2-----------3p2---------------|
E:-----5p3-5-5-4-----5p3-5-5-4-----|


   ** *keyboards optional* **
e:-7-7-7-7-7-7-7-7-7-7-7--7-7-7--7-7-7-7-7-7-7-7-7-7-7--7-7-7-|
B:-8-8-8-8-8-8-8-8-8-8-8--8-8-8--8-8-8-8-8-8-8-8-8-8-8--8-8-8-|
G:-9-9-9-9-9-9-9-9-9-9-9--9-9-9--9-9-9-9-9-9-9-9-9-9-9--9-9-9-|
D:-9-9-9-9-9-9-9-9---------------9-9-9-9-9-9-9-9--------------|
A:-7-7---------------------------7-7--------------------------|
E:------------------------------------------------------------|



   Pretty girl, don't you go mountain...
e:---------------------------------------------------------------------|
B:------------------------------------8-8-10-8-------------------------|
G:---5-7/9-9-9-7-9---------5-7/9-9-9-----------9----5-7/9-9-9-7-9------|
D:-7---------------10-7--7------------------------7---------------10-7-|
A:---------------------------------------------------------------------|
E:---------------------------------------------------------------------|


  gt1 Cos you fall in love
e:--------------------------------|
B:--------------------------------|
G:-5p4-------------5p4------------|
D:-----7p5--7-7-6------7p5--7-7-6-|
A:--------------------------------|
E:--------------------------------|

  gt2
e:-12\---------------------12\--------------------------------|
B:------------------------------------------------------------|
G:------------------------------------------------------------|
D:------------------------------------------------------------|
A:------------------------------------------------------------|
E:------------------------------------------------------------|


e:------------------------------------------------------------|
B:------------------------------------------------------------|
G:-6----------------------------------------------------------|
D:-7----------------------------------------------------------|
A:-7----------------------------------------------------------|
E:-5----------------------------------------------------------|



  gt1
e:--------------------------------------------------------------|
B:--------------------------------------------------------------|
G:--------------------------------------------------------------|
D:--------9--9-9--7-7-9----------------9--9-9--12-12-14-12--9-9-|
A:-7--10--7--7-7--5-5-7--10--7--7--10--7--7-7--10-10-12-10--7-7-|
E:-5--8------------------8---5--5--8----------------------------|
  gt2
e:---------------------------------------------------------------------|
B:------------------------------------8-8-10-8-------------------------|
G:---5-7/9-9-9-7-9---------5-7/9-9-9-----------9----5-7/9-9-9-7-9------|
D:-7---------------10-7--7------------------------7---------------10-7-|
A:---------------------------------------------------------------------|
E:---------------------------------------------------------------------|

   gt1
e:-----------------------------------------------------------|
B:-----------------------------------------------------------|
G:-----------------------------------------------------------|
D:--------9--9-9--7-7-9----------5\4-----------5\4-----------|
A:-7--10--7--7-7--5-5-7--10--7---3\2-7\5-7-7-6-3\2-7\5-7-7-6-|
E:-5--8------------------8---5-------5\3-5-5-4-----5\3-5-5-4-|

  gt2
e:--------------------------------|
B:--------------------------------|
G:-5p4-------------5p4------------|
D:-----7p5--7-7-6------7p5--7-7-6-|
A:--------------------------------|
E:--------------------------------|

e:------------------------------------------------------------|
B:------------------------------------------------------------|
G:------------------------------------------------------------|
D:------------------------------------------------------------|
A:-7----------------------------------------------------------|
E:-5----------------------------------------------------------|



hillo son mex

9/04/12
Добавлено: 02.11.2013
Другие материалы по этой песне:
  • Аккорды и текст

Страница создана 02.11.2013
http://primanota.ru/beat-crusaders/sasquatch-chords.htm
Привет, Гость.
Предлагаем пройти революционный курс по гитаре.
Подарок от PrimaNota.Ru, забирай!