PrimaNota.ru - самый крупный в мире бесплатный архив песенных текстов, аккордов, табулатур и нот


Beat Crusaders - Rats Me - таба, видео

Регистрация Запомнить меня
Войти через:  Facebook Google Twitter Vk Yandex Mail.ru

Beat Crusaders - Rats Me - таба, видео

Печатать
Просмотров: 130
Beat Crusaders
Rats Me

ok here we go again, song is easy, plus the song dosent really change
yeah so there.

.=palm mute
/=slide


|---------------------|
|---------------------|
|---------------------|
|----------77---------|
|----77----------77---|
|-55----55----55----5-|
  .. .. .. .. .. .. .

Sencond time, no plam muteing

0:09
|---------------------------------------------------------------|
|---------------------------------------------------------------|
|-4/5-555555/4-444444-2222222-----------------------------------|
|-4/5-555555/4-444444-2222222-2-22222-3-33323-555555------------|
|-2/3-333333/2-222222-0000000-2-22222-3-33323-555555------------|
|-----------------------------0-00000-1-11101-333333------------|
      ......   .. ..  ....... . .....   ....  .....


0:19
|-------------------------------------------------------|
|-------------------------------------------------------|
|-55555555-------------------999999999999---------------|
|-55555555-55555555-77777777-999999999999---------------|
|-33333333-55555555-77777777-777777777777---------------|
|----------33333333-55555555----------------------------|
Repeat from the intro untill

at 0:42

|-5-|  |-4-|
|-6-|  |-4-|
|-5-|  |-5-|
|---|  |---|
|---|  |---|
|---|  |---|
after this then VthisV
|-----------------------------------------|
|-----------------------------------------|
|-----------------------------------------|
|-101010999-777-555-33333333-66666666-----|
|-101010999-777-555-33333333-66666666-----|
|-8-8-8-777-555-333-11111111-44444444-----|
  . .   ..  ..  ..  ........ ........

now play the intro part and you know.
oh yeah theres a pinch harmonic when you go back to the intro


|---------------------|
|---------------------|
|---------------------|-7- <<<< pinch harmonics are played when you gentely
|----------77---------|         put your finger over the note near the fret
|----77----------77---|         (not pushing down the note) once you hit the
|-55----55----55----5-|         note left your finger away to get that "PONG" nosie

the song plays the same thing over.
oh yeah heres the key board part

|--15-----12-----15-----12----------|
|-----15-----13-----15-----13-------|
|-----------------------------------|
|-----------------------------------|
|-----------------------------------|
|-----------------------------------|
yeah play this alot at the time,you know

at the end they play

|------------------------------------|------|
|------------------------------------|------|
|------------------------------------|-4----|
|------------------14-14-------------|-4----|
|-------14-14------------------14----|-2----|
|-12-12-------12-12------12-12-------|------|
        play this 2X               then your
                                     done


alot of back a forth in this song
ah well see you later,

pinky still hurts.
Rusty S.
Добавлено: 09.07.2012
Другие материалы по этой песне:
  • Аккорды и текст

Страница создана 09.07.2012
http://primanota.ru/beat-crusaders/rats-me-chords.htm
Привет, Гость.
Предлагаем пройти революционный курс по гитаре.
Подарок от PrimaNota.Ru, забирай!