PrimaNota.ru - самый крупный в мире бесплатный архив песенных текстов, аккордов, табулатур и нот


Beat Crusaders - Ghost - таба, видео

Регистрация Запомнить меня
Войти через:  Facebook Google Twitter Vk Yandex Mail.ru

Beat Crusaders - Ghost - таба, видео

Печатать
Просмотров: 216
Авторы музыки: BEAT CRUSADERS
Авторы текста: ヒダカトオル
beat crusaders - ghost

Intro:

e:------------------------------------|
B:-------9--7-------------------------|
G:---6--------9-8-8-8-9-11-9----------|
D:------------------------------------|
A:------------------------------------|
E:------------------------------------|

in the middle of the song alternates the intro part with this...

e:---------------------------------------|
B:-------9--7---10-9-7-9-7---------------|
G:---6--------9------------9-------------|
D:---------------------------------------|
A:---------------------------------------|
E:---------------------------------------|

By SSimo.
Добавлено: 22.02.2012
Другие материалы по этой песне:
  • Аккорды и текст

Страница создана 22.02.2012
http://primanota.ru/beat-crusaders/ghost-chords.htm
Привет, Гость.
Предлагаем пройти революционный курс по гитаре.
Подарок от PrimaNota.Ru, забирай!