PrimaNota.ru - самый крупный в мире бесплатный архив песенных текстов, аккордов, табулатур и нот


Beat Crusaders - Cum On Feel The Noize - таба, видео

Регистрация Запомнить меня
Войти через:  Facebook Google Twitter Vk Yandex Mail.ru

Beat Crusaders - Cum On Feel The Noize - таба, видео

Печатать
Просмотров: 177
cum on feel the noize


the blue hearts


TRANSCRIBED BY RUDY GUZMAN


guzman_84@hotmail.com




                                               
e:------------------------------------------------------|
B:------------------------------------------------------|
G:------------------------------------------------------|
D:-9-9---9---10---10---10---11-11---11---10---10---10---|
A:-7-7---7---8----8----8----9--9----9----8----8----8----|
E:-----0---0----0----0----0-------0----0----0----0----0-|

e:------------------------------------------|
B:------------------------------------------|
G:------------------------------------------|
D:-9-9---9---10---10---10---11-11---11---10-|
A:-7-7---7---8----8----8----9--9----9----8--|
E:-----0---0----0----0----0-------0----0----|


e:-------------------------------|
B:-------------------------------|
G:-------------------------------|
D:-------------------------------|
A:-2--4-4-----4-4-----4-4--5-5-5-|
E:-0--2-2--0--2-2--0--2-2--3-3-3-|

e:-----------------------------------|
B:-----------------------------------|
G:-----------------------------------|
D:-----------------------------------|
A:-2--4-4-----4-4-----4-4--5-5-5--10-|
E:-0--2-2--0--2-2--0--2-2--3-3-3--8--|

e:-------------------------------------------------------|
B:-------------------------------------------------------|
G:-------------------------------------------------------|
D:-------------999999999-------------777777777--66666666-|
A:-9999999999--777777777--777777777--555555555--44444444-|
E:-7777777777-------------555555555----------------------|

e:--------------------------------------------------------------------------------------|
B:--------------------------------------------------------------------------------------|
G:--------------------------------------------------------------------------------------|
D:-------------999999999-------------777777777--66666666--------------------------------|
A:-9999999999--777777777--777777777--555555555--44444444--7-9-9-9--7-9-9-9--7-9-9-9--10-|
E:-7777777777-------------555555555-----------------------5-7-7-7--5-7-7-7--5-7-7-7--8--|

   pick slide
e:------------------------------------------------------------|
B:------------------------------------------------------------|
G:------------------------------------------------------------|
D:------------------------------------------------------------|
A:-x\---------------------------------------------------------|
E:-x\---------------------------------------------------------|


e:---------------------------------------------------------|
B:---------------------------------------------------------|
G:---------------------------------------------------------|
D:-11-11---11---11---11---11---10-10---10---10---10---10---|
A:-9--9----9----9----9----9----8--8----8----8----8----8----|
E:-------0----0----0----0----0-------0----0----0----0----0-|

e:---------------------------------------------------|
B:---------------------------------------------------|
G:---------------------------------------------------|
D:-9-9---9---9---9---9---8-8---8---8---8---8---------|
A:-7-7---7---7---7---7---6-6---6---6---6---6--9-11-9-|
E:-----0---0---0---0---0-----0---0---0---0----7-9--7-|

                                                                           x2
e:--------------------------------------------------------------------------|
B:--------------------------------------------------------------------------|
G:--------------------------------------------------------------------------|
D:-9-9--9-9-9-9-9-----------------------------------------------------------|
A:-7-7--7-7-7-7-7--9-9--9-9-9-9-9--11-11--11-11-11-11-11--7-7--7--9-9-9-9-9-|
E:-----------------7-7--7-7-7-7-7--9--9---9--9--9--9--9---5-5--5--7-7-7-7-7-|

                                x2
e:-------------------------------|
B:-------------------------------|
G:-------------------------------|
D:-------------------------------|
A:-2--4-4-----4-4-----4-4--5-5-5-|
E:-0--2-2--0--2-2--0--2-2--3-3-3-|

e:-------------------------------------------------------|
B:-------------------------------------------------------|
G:-------------------------------------------------------|
D:-------------999999999-------------777777777--66666666-|
A:-9999999999--777777777--777777777--555555555--44444444-|
E:-7777777777-------------555555555----------------------|

e:--------------------------------------------------------------------------------------|
B:--------------------------------------------------------------------------------------|
G:--------------------------------------------------------------------------------------|
D:-------------999999999-------------777777777--66666666--------------------------------|
A:-9999999999--777777777--777777777--555555555--44444444--7-9-9-9--7-9-9-9--7-9-9-9--10-|
E:-7777777777-------------555555555-----------------------5-7-7-7--5-7-7-7--5-7-7-7--8--|

   pick slide
e:------------------------------------------------------------|
B:------------------------------------------------------------|
G:------------------------------------------------------------|
D:------------------------------------------------------------|
A:-x\---------------------------------------------------------|
E:-x\---------------------------------------------------------|


e:---------------------------------------------------------|
B:---------------------------------------------------------|
G:---------------------------------------------------------|
D:-11-11---11---11---11---11---10-10---10---10---10---10---|
A:-9--9----9----9----9----9----8--8----8----8----8----8----|
E:-------0----0----0----0----0-------0----0----0----0----0-|

e:---------------------------------------------------|
B:---------------------------------------------------|
G:---------------------------------------------------|
D:-9-9---9---9---9---9---8-8---8---8---8---8---------|
A:-7-7---7---7---7---7---6-6---6---6---6---6--9-11-9-|
E:-----0---0---0---0---0-----0---0---0---0----7-9--7-|

                                                                           x2
e:--------------------------------------------------------------------------|
B:--------------------------------------------------------------------------|
G:--------------------------------------------------------------------------|
D:-9-9--9-9-9-9-9-----------------------------------------------------------|
A:-7-7--7-7-7-7-7--9-9--9-9-9-9-9--11-11--11-11-11-11-11--7-7--7--9-9-9-9-9-|
E:-----------------7-7--7-7-7-7-7--9--9---9--9--9--9--9---5-5--5--7-7-7-7-7-|


  gt2 **behind solo**
e:--------------------------------------------------------------------------------------|
B:--------------------------------------------------------------------------------------|
G:--------------------------------------------------------------------------------------|
D:------------------------9-9-9-9-9-9-9-9-----------------------------------------------|
A:-10--10-10-10-10-10-10--7-7-7-7-7-7-7-7--10--10-10-10-10-10-10--9--9---9--9-9-9-9-9-9-|
E:-8---8--8--8--8--8--8--------------------8---8--8--8--8--8--8---7--7---7--7-7-7-7-7-7-|


   solo
e:--------88888--8--10--8--10/12-----12------12-12-12-11-11-11-10-10-10-99988777666555-|
B:-5/8-8--88888-------------------12-----12--12-12-12-11-11-11-10-10-10-99988777666555-|
G:-------------------------------------------------------------------------------------|
D:-------------------------------------------------------------------------------------|
A:-------------------------------------------------------------------------------------|
E:-------------------------------------------------------------------------------------|

e:--------10---12-----------------------------------------------------7----7-------------|
B:-5/8-8-----8----8---------------------------------------------------7----7-------------|
G:-------------------11\10\9\8\7\6\5\4\3----7~~~-7-7-8~~~---8-8--9-9b---9b---9--9b-9b-9b-|
D:---------------------------------------------------------------------------------------|
A:---------------------------------------------------------------------------------------|
E:---------------------------------------------------------------------------------------|

   pick slide
e:------------------------------------------------------------|
B:------------------------------------------------------------|
G:------------------------------------------------------------|
D:------------------------------------------------------------|
A:-x\---------------------------------------------------------|
E:-x\---------------------------------------------------------|


e:------------------------------------------------------|
B:------------------------------------------------------|
G:------------------------------------------------------|
D:-9-9---9---10---10---10---11-11---11---10---10---10---|
A:-7-7---7---8----8----8----9--9----9----8----8----8----|
E:-----0---0----0----0----0-------0----0----0----0----0-|

e:------------------------------------------|
B:------------------------------------------|
G:------------------------------------------|
D:-9-9---9---10---10---10---11-11---11---10-|
A:-7-7---7---8----8----8----9--9----9----8--|
E:-----0---0----0----0----0-------0----0----|


e:--------------------------------------------------------------------------|
B:--------------------------------------------------------------------------|
G:--------------------------------------------------------------------------|
D:-9-9--9-9-9-9-9-----------------------------------------------------------|
A:-7-7--7-7-7-7-7--9-9--9-9-9-9-9--11-11--11-11-11-11-11--7-7--7--9-9-9-9-9-|
E:-----------------7-7--7-7-7-7-7--9--9---9--9--9--9--9---5-5--5--7-7-7-7-7-|


e:------------------------------------------------------------|
B:------------------------------------------------------------|
G:------------------------------------------------------------|
D:-9--------------9-------7-9-----8-9-------------------------|
A:-7--------------7-------5-7-----6-7-------------------------|
E:-------------------0-0------0-0-----------------------------|


hillo son mex

25/08/11


****************************

sweet dreams


beat crusaders


TRANSCRIBED BY RUDY GUZMAN


guzman_84@hotmail.com




                                               
e:---------------------------|
B:---------------------------|
G:-9-9------------9----------|
D:-9-9-----7------9------7-7-|
A:-7-7-----7------7------7-7-|
E:---------5-------------5-5-|

                                                x2
e:------------------------------------------------|
B:------------------------------------------------|
G:-99999999999999---------------------------------|
D:-99999999999999--999999999999999--7777777777777-|
A:-77777777777777--999999999999999--7777777777777-|
E:-----------------777777777777777--5555555555555-|

                                         x2
e:----------------------------------------|
B:-----------------------------------9-9--|
G:-----9-----8-----9-----8-----9-----8-8--|
D:-----9-----9-----9-----9-----9-----9-9--|
A:-----7-----7-----7-----7-----7-----7-7--|
E:-0-0---0-0---0-0---0-0---0-0----0-------|


   pick slide
e:------------------------------------------------------------|
B:------------------------------------------------------------|
G:------------------------------------------------------------|
D:------------------------------------------------------------|
A:-x\---------------------------------------------------------|
E:-x\---------------------------------------------------------|

  verse                                                     x2
e:------------------------------------------------------------|
B:------------------------------------------------------------|
G:-99999999999999---------------------------------------------|
D:-99999999999999--99999999999999--11-11-11-11-11-11-11-11-11-|
A:-77777777777777--99999999999999--11-11-11-11-11-11-11-11-11-|
E:-----------------77777777777777--9--9--9--9--9--9--9--9--9--|

                                         x2
e:----------------------------------------|
B:-----------------------------------9-9--|
G:-----9-----8-----9-----8-----9-----8-8--|
D:-----9-----9-----9-----9-----9-----9-9--|
A:-----7-----7-----7-----7-----7-----7-7--|
E:-0-0---0-0---0-0---0-0---0-0----0-------|


   pick slide
e:------------------------------------------------------------|
B:------------------------------------------------------------|
G:------------------------------------------------------------|
D:------------------------------------------------------------|
A:-x\---------------------------------------------------------|
E:-x\---------------------------------------------------------|

  verse                                                     
e:------------------------------------------------------------|
B:------------------------------------------------------------|
G:-99999999999999---------------------------------------------|
D:-99999999999999--99999999999999--11-11-11-11-11-11-11-11-11-|
A:-77777777777777--99999999999999--11-11-11-11-11-11-11-11-11-|
E:-----------------77777777777777--9--9--9--9--9--9--9--9--9--|

e:---------------------------------------------------------------|
B:---------------------------------------------------------------|
G:-99999999999999------------------------------------------------|
D:-99999999999999--99999999999999--777777777777-7-77777777777777-|
A:-77777777777777--99999999999999--777777777777-7-77777777777777-|
E:-----------------77777777777777--555555555555-5-55555555555555-|

                           x2
e:--------------------------|
B:--------------------------|
G:--------------9--9--------|
D:-6--6--7--7---9--9--9--9--|
A:-6--6--7--7---7--7--9--9--|
E:-4--4--5--5---------7--7--|


  gt1                                       
e:----------------------------------------|
B:-----------------------------------9-9--|
G:-----9-----8-----9-----8-----9-----8-8--|
D:-----9-----9-----9-----9-----9-----9-9--|
A:-----7-----7-----7-----7-----7-----7-7--|
E:-0-0---0-0---0-0---0-0---0-0----0-------|

  gt2
e:-4------4-------4------4------4------4-----|
B:---5------5-------5------5------5------5---|
G:-----4-------4------4------4------4------4-|
D:-------------------------------------------|
A:-------------------------------------------|
E:-------------------------------------------|

                              x2
e:-----------------------------|
B:-----------------------------|
G:-9---------------------------|
D:-9---------9---------7-------|
A:-7---------9---------7-------|
E:-----------7---------5-------|

e:------------|
B:------------|
G:------------|
D:-7777777777-|
A:-7777777777-|
E:-5555555555-|

e:--------------------------------------------------|
B:--------------------------------------------------|
G:---------------------------9999999999-------------|
D:-66666666666--77777777777--9999999999--9999999999-|
A:-66666666666--77777777777--7777777777--9999999999-|
E:-44444444444--55555555555--------------7777777777-|

e:-----------------------------------------------|
B:-----------------------------------------------|
G:-999999999-------------------------------------|
D:-999999999--9999999999--7777777777--9999999999-|
A:-777777777--9999999999--7777777777--9999999999-|
E:------------7777777777--5555555555--7777777777-|

e:----------------------------------------|
B:-----------------------------------9-9--|
G:-----9-----8-----9-----8-----9-----8-8--|
D:-----9-----9-----9-----9-----9-----9-9--|
A:-----7-----7-----7-----7-----7-----7-7--|
E:-0-0---0-0---0-0---0-0---0-0----0-------|

   gt1
e:----------------------------------------|
B:-----------------------------------9-9--|
G:-----9-----8-----9-----8-----9-----8-8--|
D:-----9-----9-----9-----9-----9-----9-9--|
A:-----7-----7-----7-----7-----7-----7-7--|
E:-0-0---0-0---0-0---0-0---0-0----0-------|

e:----------------------------------------|
B:----------------------------------------|
G:----------------------------------------|
D:-----------------------------------9-9--|
A:-2222222222222222222222222222222---7-7--|
E:-0000000000000000000000000000000--------|


hillo son mex

25/08/11
Добавлено: 21.03.2012
Другие материалы по этой песне:
  • Аккорды и текст

Страница создана 21.03.2012
http://primanota.ru/beat-crusaders/cum-on-feel-the-noize-chords.htm
Привет, Гость.
Предлагаем пройти революционный курс по гитаре.
Подарок от PrimaNota.Ru, забирай!