PrimaNota.ru - самый крупный в мире бесплатный архив песенных текстов, аккордов, табулатур и нот


Beat Beat Beat - Fireworks - таба, видео

Регистрация Запомнить меня
Войти через:  Facebook Google Twitter Vk Yandex Mail.ru

Beat Beat Beat - Fireworks - таба, видео

Печатать
Просмотров: 29
-------------------------------------------------------------------------------
                             FIREWORKS - Beat!Beat!Beat!
-------------------------------------------------------------------------------
Tabbed by: Milchbubi99
E-mail: milchbubi99@yahoo.de

Tuning:EADGBe

Intro:
Be sure to play these two guitar parts together in time for maximum awesomeness

Guitar 1:
e|---------------------------------------------------------------------------|
B|-7------------------7------------------7------------------7----------------|
G|----8----8--8----8-----8----8--8----8-----8----8--8----8-----8----8--8----8|
D|---------------------------------------------------------------------------|
A|---------------------------------------------------------------------------|
E|---------------------------------------------------------------------------|
Guitar 2:
e|---------------------------------------------------------------------------|
B|---------------------------------------------------------------------------|
G|-3------------------3------------------3---------------1--3---------------1|
D|----4----4--4----4-----3----3--3----3-----1----1--1----------1----1--1-----|
A|---------------------------------------------------------------------------|
E|---------------------------------------------------------------------------|

Intro 2x

Main Riff
May sound weird if you play it by itself, it's all about layers!

Guitar 1:
e|-6-----6--9---------6-----6--9---------6-----6--9---------6-----6--9-------|
B|---9p7---------9-9----9p7---------9-9----9p7---------9-9----9p7-------9----|
G|---------------------------------------------------------------------------|
D|---------------------------------------------------------------------------|
A|---------------------------------------------------------------------------|
E|---------------------------------------------------------------------------|

e|---------------------------------------------------------------------------|
B|----------7------------------7------------------7------------------6--7----|
G|-8-----8-------6-6--8-----8-------6-6--8-----8-------6-6--8-----8----------|
D|---------------------------------------------------------------------------|
A|---------------------------------------------------------------------------|
E|---------------------------------------------------------------------------|

Main Riff 4x

Then for Verse 1 it's just vocals, bass and drums. Take the opportunity to give your fingers a little rest.
But if you are really keen you can accompany the others with these chords:
|  D#m  |  B  |  G#m  |C#|D| Repeat 2x

and back to:

main riff 2x

Chorus:
Before the vocals kick in theres a little slow part
  D#m                 C6                 B                  Bb7
e|-6------------------6------------------7-------------------------7----6----|
B|-7------------------6------------------7--------------------6--------------|
G|-8------------------6------------------8----------------6h7---7------------|
D|-8------------------6------------------9--------------9--------------------|
A|-6------------------4------------------9-----------------------------------|
E|---------------------------------------7-----------------------------------|

e|-6-------------9p6--6------------------7------------------6---6-66-66666666|
B|-7------------------6------------------7------------------6---6-66-66666666|
G|-8------------------6------------------8------------------7---7-77-77777777|
D|-8------------------6------------------9------------------8---8-88-88888888|
A|-6------------------4------------------9------------------8---8-88-88888888|
E|---------------------------------------7------------------6---6-66-66666666|

D#m C6 B Bb7 2x

Main Riff 2x
Verse 2
Main Riff 2x
Chorus - Repeat forever..or until you get bored.

Enjoy!

************************************

| /   slide up
| \   slide down
| h   hammer-on
| p   pull-off
| ~   vibrato
| +   harmonic
| x   Mute note
| b   Bend
| pb  Pre-bend
| br  Bend release
| pbr Pre-bend release
| brb Bend release bend

************************************
Добавлено: 06.12.2015
Другие материалы по этой песне:
  • Аккорды и текст

Страница создана 06.12.2015
http://primanota.ru/beat-beat-beat/fireworks-chords.htm
Привет, Гость.
Предлагаем пройти революционный курс по гитаре.
Подарок от PrimaNota.Ru, забирай!