PrimaNota.ru - самый крупный в мире бесплатный архив песенных текстов, аккордов, табулатур и нот


Beastmilk - Death Reflects Us - таба, видео

Регистрация Запомнить меня
Войти через:  Facebook Google Twitter Vk Yandex Mail.ru

Beastmilk - Death Reflects Us - таба, видео

Печатать
Просмотров: 121
Artist: Beastmilk
Album:  Climax (2013)
Song:   death reflects us
Tuning: Standard (E-A-D-g-b-e)

Tabbed by: dupree79

----------------------------PLEASE-NOTE--------------------------------------
This file is the author's own work and represents their interpretation of the
song. You may only use this file for private study, scholarship, or research.
-----------------------------------------------------------------------------




e|--10-10--| |--10-10-10--10-10-10--10-10-10--10-10-10--10-10-10--10-10-10-----|
B|--10-10--| |--10-10-10--10-10-10--10-10-10--10-10-10--10-10-10--10-10-10-----|
G|--7--7---| |--7--7--7---7--7--7---7--7--7---7--7--7---7--7--7---7--7--7------|
D|---------| |-----------------------------------------------------------------|
A|---------| |-----------------------------------------------------------------|
E|---------| |-----------------------------------------------------------------|

  --10-10-10--10-10-10--10-10-10--10-10-10--10-10-10--10-10-10--10-10-10-------|
  --10-10-10--10-10-10--10-10-10--10-10-10--10-10-10--10-10-10--10-10-10-------|
  --7--7--7---7--7--7---7--7--7---7--7--7---7--7--7---7--7--7---7--7--7--------|
  -----------------------------------------------------------------------------|
  -----------------------------------------------------------------------------|
  -----------------------------------------------------------------------------|

  --------------|
  --5-5--5-5-5--|
  --5-5--5-5-5--|
  --5-5--5-5-5--|
  --------------|
  --------------|

e|--------------------------------------------------------|
b|--------------------------------------------------------|
g|-----10--9--------------5--5-----------5----------------|
D|--7---------7--0-----7--------8--7--8-----8--7--8--10*--| *last note rings out with
A|------------------8-------------------------------------|   some effects at the record
E|--------------------------------------------------------|

06.08.2015
Добавлено: 27.09.2015
Другие материалы по этой песне:
  • Аккорды и текст

Страница создана 27.09.2015
http://primanota.ru/beastmilk/death-reflects-us-chords.htm
Привет, Гость.
Предлагаем пройти революционный курс по гитаре.
Подарок от PrimaNota.Ru, забирай!