PrimaNota.ru - самый крупный в мире бесплатный архив песенных текстов, аккордов, табулатур и нот


beastie - Asleep On The Bus - таба, видео

Регистрация Запомнить меня
Войти через:  Facebook Google Twitter Vk Yandex Mail.ru

beastie - Asleep On The Bus - таба, видео

Печатать
Просмотров: 39
-------------------------------------------------------------------------------
                             Asleep On The Bus - BESTIE
-------------------------------------------------------------------------------
Tabbed by: Popkiem101
E-mail: beechmusicblog@gmail.com

No BESTIE tabs anywhere?! Well heres a pretty good one I've done so enjoy!

For more music like this check out my indie music blog 'beechmusic.net' :)

Tuning: Standard


Pre-Intro: Something along these lines...

e|-------------------5~~-----------------x~~-------------------------|
B|-------------------7~~-----------------3~~-------------------------|
G|--Volume Swell~~---6~~-----------------4~~-------------------------|
D|-------------------7~~-----------------3~~-------------------------|
A|-------------------5~~-----------------5~~-------------------------|
E|-------------------5~~-----------------3~~-------------------------|


Intro/Verse Riff: [x7 I think...]

e|-------------------------------------------------------------------|
B|--7----------------------------------------------------------------|
G|-----6-6//7----7--------2--2--2//4----4----------------------------|
D|-------------------------------------------------------------------|
A|--5----------------------------------------------------------------|
E|-----5-5//7--7-7-7------2--2--2//3--3-3-3--------------------------|

e|-------------------------------------------------------------------|
B|--7----------------------------------------------------------------|
G|-----6-6//7----7--------2--6--4----4-------------------------------|
D|-------------------------------------------------------------------| 
A|--5----------------------------------------------------------------|
E|-----5-5//7--7-7-7------2--5--3--3-3-3-----------------------------|


Chorus: [Strumming: DD-DU-UD]

        Amaj          Gmaj
e|------5-------------3----------------------------------------------|
B|------5-------------3----------------------------------------------|
G|------6-x24---------4-x24------------------------------------------| [x2]
D|------7-------------5----------------------------------------------|
A|------7-------------5----------------------------------------------|
E|------5-------------3----------------------------------------------|

Bridge: Just play around strumming D and A, maybe through in a G.


************************************

| /   slide up

| x   Mute note


************************************
Добавлено: 09.06.2016
Другие материалы по этой песне:
  • Аккорды и текст

Страница создана 09.06.2016
http://primanota.ru/beastie/asleep-on-bus-chords.htm
Привет, Гость.
Предлагаем пройти революционный курс по гитаре.
Подарок от PrimaNota.Ru, забирай!