PrimaNota.ru - самый крупный в мире бесплатный архив песенных текстов, аккордов, табулатур и нот


Beastie Boys - Transit Cop - таба, видео

Регистрация Запомнить меня
Войти через:  Facebook Google Twitter Vk Yandex Mail.ru

Beastie Boys - Transit Cop - таба, видео

Печатать
Просмотров: 120
Verse
E--------------------------------|
B--------------------------------|
G--------5-5-x-------------------|
D--3--5--5-5-x-7--7-7-7-7-7-7-7--|
A--3--5--3-3-x-7--7-7-7-7-7-7-7--|
E--1--3--------5--5-5-5-5-5-5-5--|

Bridge
E---------------------|
B---------------------|
G---------------------|
D--5----5----5--5--5--|
A--5----5----5--5--5--|
E--3----3----3--3--3--|

Chorus
E-------------------------------------|
B-------------------------------------|
G-------------------------------------|
D--3-3-3-3-3-3-3-3-5----5----5--5--5--|
A--3-3-3-3-3-3-3-3-5----5----5--5--5--|
E--1-1-1-1-1-1-1-1-3----3----3--3--3--|

E---------------------------|
B---------------------------|
G---------------------------|
D--3-3-3-3-3-3-3-3-3.3.3.---| . = Stopped Notes
A--3-3-3-3-3-3-3-3-3.3.3.---|
E--1-1-1-1-1-1-1-1-1.1.1.---|

Interlude
E-------------------------------------------|
B-------------------------------------------|
G--7--7------5------------------------------|
D--7--7-7--7-5--3--3-3--3-3-3-5--5-5--5-5-5-| x2
A--5--5-7--7-3--3--3-3--3-3-3-5--5-5--5-5-5-|
E-------5--5----1--1-1--1-1-1-3--3-3--3-3-3-|

E-----------------------------------|
B-----------------------------------|
G--7--7------5----------------------|
D--7--7-7--7-5--3--3-3--3-3-3-2-----|
A--5--5-7--7-3--3--3-3--3-3-3-2-----|
E-------5--5----1--1-1--1-1-1-0-----|

Verse     x4
Bridge    x1
Chorus    x1
Interlude x1
Verse     x4
Bridge    x1
Chorus    x1
Interlude x1
Verse     x4
Добавлено: 23.03.2012
Другие материалы по этой песне:
  • Аккорды и текст

Страница создана 23.03.2012
http://primanota.ru/beastie-boys/transit-cop-chords.htm
Привет, Гость.
Предлагаем пройти революционный курс по гитаре.
Подарок от PrimaNota.Ru, забирай!