PrimaNota.ru - самый крупный в мире бесплатный архив песенных текстов, аккордов, табулатур и нот


Beastie Boys - Mullet Head - текст песни, бас-таба, видео

Регистрация Запомнить меня
Войти через:  Facebook Google Twitter Vk Yandex Mail.ru

Beastie Boys - Mullet Head - текст песни, бас-таба, видео

Печатать
Просмотров: 120
Уроки эстрадного вокала в Санкт-Петербурге
-------------------------------------------------------------------------------
                             Mullet Head - Beastie Boys
-------------------------------------------------------------------------------
Tabbed by: Ben Pfeifer
Tuning: Standard

Part A
G|-------------------------------------------------------|
D|-------------------------------------------------------|
A|-------------------------------------------------------|
E|--0--0--0--0-0-3--3--3--3-3-2--2--2--2-2-5--5--5--5-5--|
    E            G            F#           A               


Part B
G|------------------------------|
D|------------------------------|
A|------3-5-3-5-----------------|
E|--5-0------------5-0-2-3-2-3--|
    A   C          A   F# 


Part C
G|--------------------------------------------------------|
D|--------------------------------------------------------|
A|--------------------------------------------------------|
E|--0--0--0--0-0-3--3--3--3-3-2--2--2--2-2-5-5--3-3--0----|
    E            G            F#           A    G    E        


Part D
G|---------------------------------------------------------|
D|---------------------------------------------------------|
A|------3-5-3-5-----------------------3-5-3-5--------------|
E|--5-0------------5-0-2-3-2-3----5-0------------2-----3---|
    A   C          A   F#         A   C          F#    G


Part E
G|---------------------------|
D|---------------------------|
A|------5-7-5----------------|
E|--5-7-------7-5-0-5-0-5-7--|


Part A - 2x - bass + guitar feedback
Part A - 4x - bass + drums + guitar feedback
Part A - 4x - full band
Part B - 6x - then one note of A
-- double beat --
Part A - 9x
Part C - 1x
-- single beat --
Part D - 3x - then one note of A
-- double beat --
Part A - 4x
Part E - 10x
Добавлено: 24.08.2015
Другие материалы по этой песне:
  • Аккорды и текст

Страница создана 24.06.2012
http://primanota.ru/beastie-boys/mullet-head-chords.htm
Привет, Гость.
Предлагаем пройти революционный курс по гитаре.
Подарок от PrimaNota.Ru, забирай!