PrimaNota.ru - самый крупный в мире бесплатный архив песенных текстов, аккордов, табулатур и нот


Beastie Boys - Live at p j 's - текст песни, бас-таба, видео

Регистрация Запомнить меня
Войти через:  Facebook Google Twitter Vk Yandex Mail.ru

Beastie Boys - Live at p j 's - текст песни, бас-таба, видео

Печатать
Просмотров: 36
Авторы музыки: Mark Ramos-Nishita, Adam Yauch, Adam Horovitz, Michael Diamond

-------------------------------------------------------------------------------
                             Live at P.J.'S - Beastie Boys 
-------------------------------------------------------------------------------
Tabbed by: thtavrgwhteguy 
E-mail: littlebignoah@icloud.com

Tuning: Standard
 Intro 
G|---------------------4-5-5-5-5/7-------------------------------------------|
D|-------2-3-2-3-5---55------------------------------------------------------|
A|-3--5----------------------------------------------------------------------|
E|---------------------------------------------------------------------------|

G|---------------------------------------------------------------------------|
D|-------2-3-2-3/5--4--------------------------------------------------------|
A|-3--5----------------------------------------------------------------------|
E|---------------------------------------------------------------------------|
  all rapping parts (This part is repeated throughout 
                  you can improvise a bit like in the official 
                          recording/performance)
G|---------------------------------------------------------------------------|
D|--------5-4-4-4-4-5--------------------------------------------------------|
A|---------------------------------------------------------------------------|
E|-2/3-3---------------------------------------------------------------------|
     This is what's played at "GONNA BREAK IT DOWN..." Yeah that's it...
G|---------------------------------------------------------------------------|
D|---------------------------------------------------------------------------|
A|---------------------------------------------------------------------------|
E|--3-2-3-2-3-2-3-2----------------------------------------------------------|
     This is played at the end when the bass comes back in but has a few notes added.
G|---------------------4-5-5-5-5/7----------------------------------------------|
D|-------2-3-2-3/5---55------------------------------------------------------|
A|-3--5----------------------------------------------------------------------|
E|---------------------------------------------------------------------------|
      and then 
G|----------------------------7----------------------------------------------|
D|-------2-3-2-3/5-5-3-3-2-2-------------------------------------------------|
A|-3--5----------------------------------------------------------------------|
E|---------------------------------------------------------------------------|
 and then repeat the intro again one more time and.....Now your done with the song! 

| /  slide up
| \  slide down
| h  hammer-on
| p  pull-off
| ~  vibrato
| +  harmonic
| x  Mute note
===============================================================================
Добавлено: 05.05.2016
Другие материалы по этой песне:
  • Аккорды и текст

Страница создана 23.02.2012
http://primanota.ru/beastie-boys/live-at-p-j-s-chords.htm
Привет, Гость.
Предлагаем пройти революционный курс по гитаре.
Подарок от PrimaNota.Ru, забирай!