PrimaNota.ru - самый крупный в мире бесплатный архив песенных текстов, аккордов, табулатур и нот


Beastie Boys - I Want Some - текст песни, бас-таба, видео

Регистрация Запомнить меня
Войти через:  Facebook Google Twitter Vk Yandex Mail.ru

Beastie Boys - I Want Some - текст песни, бас-таба, видео

Печатать
Просмотров: 71
Авторы: Adam Yauch, Amery Smith, Adam Horovitz, Michael Diamond

-------------------------------------------------------------------------------
                             I Want Some - Beastie Boys
-------------------------------------------------------------------------------
Tabbed by: Ben Pfeifer
Tuning: Standard

Part A
G|------------------------------------------------------------------|
D|------------------------------------------------------------------|
A|--10-10-10--9-9-9--7-7-7--7-7-7--2-2-2-2-2-2-2-2-2-2-2-2-2-2-2-2--|
E|------------------------------------------------------------------|
    G         F#     F             B 


Part B
G|---------------------------------------------------------------------------|
D|---------------------------------------------------------------------------|
A|--12-12-12--11-11-11--10-10-10--10-10-10--8-8-8-8-8-8-8-8-8-8-8-8-8-8-8-8--|
E|---------------------------------------------------------------------------|
    A         G#        G                   F 


Part C
G|--------------------------------------------------------------------|
D|--------------------------------------------------------------------|
A|--5-5-5-5-5-5-5-5-5-5-5-5-5-5-5-5-----------------------------------|
E|-----------------------------------5-5-5-5-5-5-5-5-5-5-5-5-5-5-5-5--|
    D                                A


Part D
G|--------------------------------------------------------------------|
D|--------------------------------------------------------------------|
A|--------------------------------------------------------------------|
E|--3-3-3-3-3-3-3-3-3-3-3-3-3-3-3-3--3-3-3-3-3-3-3-3-3-3-3-3-3-3-3-3--|
    G                                G
 

Part E
G|--------------------------------------------------------------------------------|
D|--------------------------------------------------------------------------------|
A|--7-7--7-7---7--7---7-7-7-7--7-7---7--7-----------------------------------------|
E|-----------------------------------------7-7--7-7---7--7---7-7-7-7--7-7---7--7--|
    E                                      B

Part A - 1x
Part B - 1x
Part A - 1x
Part B - 1x
Part C - 1x
Part D - 1x
Part C - 1x
Part D - 1x
Part A - 1x
Part B - 1x
Part A - 1x
Part B - 1x
Part C - 1x
Part D - 1x
Part C - 1x
Part D - 1x
Part E - 4x
Добавлено: 24.08.2015
Другие материалы по этой песне:
  • Аккорды и текст

Страница создана 06.06.2012
http://primanota.ru/beastie-boys/i-want-some-chords.htm
Привет, Гость.
Предлагаем пройти революционный курс по гитаре.
Подарок от PrimaNota.Ru, забирай!