PrimaNota.ru - самый крупный в мире бесплатный архив песенных текстов, аккордов, табулатур и нот


Beastcraft - Blackwinged Messiah - бас-таба, видео

Регистрация Запомнить меня
Войти через:  Facebook Google Twitter Vk Yandex Mail.ru

Beastcraft - Blackwinged Messiah - бас-таба, видео

Печатать
Просмотров: 14
Tabbed by: 6METAL6BASSIST6
E-mail: petergriffinav@gmail.com

Tuning: EADG

G|------------------------------------------------------------------------|
D|------------------------------------------------------------------------| x2
A|------------------------3-----------------------------------------------|
E|0-------0-------0---------------3-------5-------5-------5-------5-------|

G|------------------------------------------------------------------------|
D|------------------------------------------------------------------------|
A|------------------------------------------------------------------------|
E|------------------------------------------------------------------------|

G|------------------------------------------------------------------------|
D|------------------------------------------------------------------------|
A|------------------------------------------------------------------------|
E|------------------------------------------------------------------------|

0:33

G|------------------------------------------------------------------------|
D|------------------------------------------------------------------------| x4
A|------------------------3-----------------------------------------------|
E|0-------0-------0---------------3-------5-------5-------5-------5-------|

G|----------------------------------------------------------------|
D|----------------------------------------------------------------| x2
A|----------------6-------6-------3-------3-------3-------3-------|
E|0-------0-------------------------------------------------------|

1:20

G|------------------------------------------------------------------------|
D|------------------------------------------------------------------------| x4
A|------------------------3-----------------------------------------------|
E|0-------0-------0---------------3-------5-------5-------5-------5-------|

G|----------------------------------------------------------------|
D|----------------------------------------------------------------| x2
A|----------------6-------6-------3-------3-------3-------3-------|
E|0-------0-------------------------------------------------------|

2:03

G|----------------------------------------------------------------|.
D|----------------------------------------------------------------|.
A|--------------------------------4-------------------------------|.
E|0-------1-------0-------4---------------------------------------|.
                                                                   . x2
G|----------------------------------------------------------------|.
D|----------------------------------------------------------------|.
A|----------------------------------------------------------------|.
E|0-------1-------0-------5-------4-------------------------------|.

G|----------------------------------------------------------------|.
D|----------------------------------------------------------------|.
A|--------------------------------4-------4-------4-------4-------|.
E|0-------1-------0-------4---------------------------------------|.
                                                                   . x4
G|----------------------------------------------------------------|.
D|----------------------------------------------------------------|.
A|----------------------------------------------------------------|.
E|0-------1-------0-------5-------4-------4-------4-------4-------|.

3:24

G|------------------------------------------------------------------------|
D|------------------------------------------------------------------------| x4
A|------------------------3-----------------------------------------------|
E|0-------0-------0---------------3-------5-------5-------5-------5-------|

G|----------------------------------------------------------------|
D|----------------------------------------------------------------| x2
A|----------------6-------6-------3-------3-------3-------3-------|
E|0-------0-------------------------------------------------------|

4:09

G|----------------------------------------------------------------|.
D|----------------------------------------------------------------|.
A|------------------------3---------------------------------------|.
E|0-------0-------0---------------5-------5-------5-------5-------|.
                                                                   . x2
G|----------------------------------------------------------------|.
D|----------------------------------------------------------------|.
A|----------------------------------------------------------------|.
E|0-------0-------0-------3-------5-------5-------5-------5-------|.

G|----------------------------------------------------------------|
D|----------------------------------------------------------------|
A|------------------------3---------------------------------------|
E|0-------0-------0---------------5-------5-------5-------5-------|

G|----------------------------------------------------------------|
D|----------------------------------------------------------------|
A|7-------7-------7-----------------------------------------------|
E|------------------------3-------5-------5-------5-------5-------|

G|----------------------------------------------------------------|
D|----------------------------------------------------------------| to fadeout.
A|------------------------3---------------------------------------|
E|0-------0-------0---------------5-------5-------5-------5-------|
Добавлено: 20.05.2016
Другие материалы по этой песне:
  • Аккорды и текст

Страница создана 20.05.2016
http://primanota.ru/beastcraft/blackwinged-messiah-chords.htm
Привет, Гость.
Предлагаем пройти революционный курс по гитаре.
Подарок от PrimaNota.Ru, забирай!