PrimaNota.ru - самый крупный в мире бесплатный архив песенных текстов, аккордов, табулатур и нот


Beast - Drive - аккорды и текст, видео

Регистрация Запомнить меня
Войти через:  Facebook Google Twitter Vk Yandex Mail.ru

Beast - Drive - аккорды и текст, видео

Печатать
Просмотров: 159
Drive
Beast
BEAST - DRIVE
From the "Time" EP
Transcribed by imspazzen

I've also included the guitar part that plays through the verses. Scroll to the bottom of the page
to view!

Capo on 5th fret (this doesn't apply to the guitar part at the bottom! for chords only!)

Chords used:
  Eb7M    F  Dm7  Gm  Dm   G
e|--1-----0----0---1---0---2---|
B|--3-----1----1---3---1---3---|
G|--2-----0----0---2---2---2---|
D|--3-----2----2---0---2---0---|
A|--1-----3----0-------0-------|
E|-----------------------------|


{[Intro/Verse 1]}
   Eb7M  
Uh   jameun ojil anko ne gieogeun gajil annne
F
  goerowo dwicheogida achimeul majihal baen
Dm7
  yunanhi dapdaphage neukkyeojineun jibeul
   Gm
beoseonago sipeo cha kireul chaenggyeo naseotji
Eb7M  
  sidonggwa hamkke kyeojineun naebigeisyeon
   F
eulgyeo chatneun mokjeokjineun neoui jip maen wie isseo
Dm7
  mot bol geol bon deusi modeun girogeul jiwo
     Gm
jajonsimdo eomneun simjangeun deo ppareuge ttwigo isseo. 


  Eb7M  
iksukhajiman neoui jibi boineun gireul
       F
aesseo pihamyeo guji nan haendeureul dollyeotji
        Dm7
natseon doro wie banghwang tto irheobeorin banghyang
    Gm
nae moseubin geot gata bollyumeul kiwotji
    Eb7M  
sin naneun norael deureumyeon naega deo
     F
cheoryanghae boilkka bwa seulpeun norael teureo
       Dm7
pilleumcheoreom heulleoganeun garodeung bulbit
      Gm
naega jinachineun geon ama miryeonigetji


{[Chorus 1]}
    Eb7M  
deo sege pedareul balba
    F
uri chueogi da munggaejige
     Dm7
changmuneul yeolgoseo Bye bye
       Gm
nameun maeumi da heutnallige
   Eb7M  
Oh oh johatdeon geotdo
   F
Oh oh nappatdeon geotdo
    Dm7                Gm
ije dwirohagoseo Drive drive drive


{[Verse 2]}
Eb7M  
   hanchameul dolgo doraseo
          F 
modeun ge natseoreo jil ttaejjeum
       Dm7
nareul meomchuneun sinhodeungi
          Gm
waenji neoin geot gataseo
     Eb7M  
nega haraneun daero
     F
nega garaneun daero
        Dm7
dwidora bomyeon cham
                           Gm
nae tteutdaero haetdeon ge eobseo nan


      Eb7M                           F
anjeonbelteucheoreom kkwak jabatdeon ne son (ijen eobtjiman)
       Dm7                  Gm
sesang mueotboda nal pyeonanhage mandeureosseo
   Eb7M                     F
geuttae neol tteona bonaen ihuro (geunal ihuro)
    Dm7                    Gm
geu eotteon geotdo nal jabajuji motae


{[Chorus 2]}
    Eb7M  
deo sege pedareul balba
    F
uri chueogi da munggaejige
     Dm7
changmuneul yeolgoseo Bye bye
       Gm
nameun maeumi da heutnallige
   Eb7M  
Oh oh johatdeon geotdo
   F
Oh oh nappatdeon geotdo
    Dm7                Gm
ije dwirohagoseo Drive drive drive


{[Bridge]}
Eb7M                    F
  haneuri paraejyeo ije haega tteuryeona bwa
    Dm7                       Gm
nae maeum gata jeo haneul nae maeum gata
     Eb7M  
ijen gwaenchanheul geoya
        Dm
ne saenggage jam mot deuneun bam
   Gm                      G
deoneun eobseul geoya Good bye


{[Chorus 3]}
    Eb7M  
deo sege pedareul balba
    F
uri chueogi da munggaejige
     Dm7
changmuneul yeolgoseo Bye bye
       Gm
nameun maeumi da heutnallige
   Eb7M  
Oh oh johatdeon geotdo
   F
Oh oh nappatdeon geotdo
    Dm7                Gm
ije dwirohagoseo Drive drive drive


{[Ending]}
   Eb7M                       F
eolmana deo gamyeon naneun neoreul (ijeul su isseulkka)
  Dm7                      Gm
i gire kkeuteseo naneun neoreul (bonael su isseulkka)
   Eb7M                     F
hanchameul dalligo tto dallimyeon (naneun gwaenchanheulkka)
    Dm7                 Gm
deo sege pedareul balba Drive drive

_____________________________________________________________

{[Extra stuff]}

Lead Guitar part:
e|--------13------------------15-x-13-x----------------------x-15-x-13-------------|
B|--15p13------15p13----13-----x-x--x-x-11/13-13-13-13-------x--x-x--x-13-11-------|
G|-------------------12-------12-x-10-x--x--x--x--x--x-------x-12-x-10--x--x-------|
D|---------------------------------------8/10-10-10-10-----------------10--8-------|
A|---------------------------------------------------------------------------------|
E|---------------------------------------------------------------------------------|

Rhythm Guitar part:
e|------------------------------------------------------------------------|
B|------------------------------------------------------------------------|
G|--7-7--7-7-7-----7-7--7-7-7-----5-5--5-5-5----------7p5----7p5--5--7-5--|
D|---------------------------------------------------5------5-------------|
A|-------------------------------------------------5----------------------|
E|------------------------------------------------------------------------|
                                                   ^this part is kind of fast

Tab notation guide:

p = pull-off
x = muted note
_______________________________________________________________
Feel free to post any questions/corrections in the comments! Thank you for viewing ^^
Добавлено: 01.08.2015
Другие материалы по этой песне:
  • Аккорды и текст

Страница создана 01.08.2015
http://primanota.ru/beast/drive-chords.htm
Привет, Гость.
Предлагаем пройти революционный курс по гитаре.
Подарок от PrimaNota.Ru, забирай!