PrimaNota.ru - самый крупный в мире бесплатный архив песенных текстов, аккордов, табулатур и нот


Bear Vs Shark - Kylie - текст песни, таба, видео

Регистрация Запомнить меня
Войти через:  Facebook Google Twitter Vk Yandex Mail.ru

Bear Vs Shark - Kylie - текст песни, таба, видео

Печатать
Просмотров: 151
---------------------------------------------------------------------
                    “Kylie” by Bear Vs. Shark
---------------------------------------------------------------------

From the album “Right Now You're In The Best Of Hands, But If Something Isn't Quite 
Your Doctor Know In A Hurry"

Tabbed by Trent (ICanPlayWell)
icanplaymyguitar@yahoo.com

Standard Tuning
Key
p    pull off
h    hammer on
b    bend
~    let ring
\    slide down
/    slide up
p.m. palm mute

Listen to the song to get the timing right

Guitar One
Intro/Verse [0:00-0:49]
e|------------------------------------------------------------|
b|---7----7-------7----7--------------------------------------|
g|---7----7-------7----7--------------------------------------|
d|-------------------------------4---5p4---4----4---5p4-------|
a|-----------------------------5---------3--------5-----5-----|
e|-7----7----5--5----5------3------3----------3---------------|

e|------------------------------------------------------------|
b|---7----7-------7----7--------------------------------------|
g|---7----7-------7----7--------------------------------------|
d|-------------------------------4---5p4---4----4---5p4-------|
a|-----------------------------5---------3--------5-----5-----|
e|-7----7----5--5----5------3------3----------3---------------|

“Just let me fall…”
e|------------------------------------------------------------|
b|---7----7-------7----7--------------------------------------|
g|---7----7-------7----7--------------------------------------|
d|-------------------------------4---5p4---4----4---5p4-------|
a|-----------------------------5---------3--------5-----5-----|
e|-7----7----5--5----5------3------3----------3---------------|

e|------------------------------------------------------------|
b|---7----7-------7----7--------------------------------------|
g|---7----7-------7----7--------------------------------------|
d|-------------------------------4---5p4---7----4---5p4-------|
a|-----------------------------5---------3--------5-----5-----|
e|-7----7----5--5----5------3------3----------3---------------|

e|----------------------------2------2------2------2----------|
b|---7----7-------7----7--------3------3------3------3--------|
g|---7----7-------7----7--------------------------------------|
d|------------------------------------------------------------|
a|------------------------------------------------------------|
e|-7----7----5--5----5------3------3------3------3------3-0---|

e|---------------------------7~-------------------|
b|---7----7-------7----7-----7~-------------------|
g|---7----7-------7----7-----7~-------------------|
d|------------------------------------------------|
a|------------------------------------------------|
e|-7----7----5--5----5----------------------------|

Chorus [0:50-1:05]
e|---------------------------------------------|
b|--7----7--8---7-----7------7---7--7----------|
g|--7----7--7---7-----7------7---7--7----------|
d|---------------------------------------------|
a|--7----7--7---5-----5------------------------|
e|------------------------7~-------------------|

e|---------------------------------------------|
b|--7----7--8---7-----7--------7---7--7--------|
g|--7----7--7---7-----7--------7---7--7--------|
d|---------------------------------------------|
a|--7----7--7---5-----5------------------------|
e|------------------------5-7~-----------------|

Guitar One plays the Intro/Verse part for [1:06-1:37]

Guitar Two  [1:06-1:37]
e|----------------------5--5-5-5-5-5-5-5p2p0h2—2/3-3-3-3-2-2--|
b|--14\3--3-3-3-3-3-3-3---------------------------------------|
g|------------------------------------------------------------|
d|------------------------------------------------------------|
a|------------------------------------------------------------|
e|------------------------------------------------------------|
          |.............p.m...........|

e|----------------5--5-5-5-5-5-5------------------------------|
b|--3-3-3-3-3-3-3----------------3~---5b-5b-5b-5b-5b-5b-5b----|
g|------------------------------------------------------------|
d|------------------------------------------------------------|
a|------------------------------------------------------------|
e|------------------------------------------------------------|
   |.............p.m...........|
Repeat Twice

Distorted Chorus [1:38-2:07]
e|----------------------------------------|
b|--7--7---8---7-----7------7---7--7------|
g|--7--7---7---7-----7------7---7--7------|
d|----------------------------------------|  x 2
a|--7--7---7---5-----5--------------------|
e|------------------------7-7---7--7------|

e|-------------------------------------------------|
b|--7----7--8---7-----7----------------------------|
g|--7----7--7---7-----7--------------------7--7-7--|
d|-----------------------7-7-7-7-7-7-7-9---x--x-x--| x 2
a|--7----7--7---5-----5--7-7-7-7-7-7-7-9---5--5-5--|
e|-----------------------5-5-5-5-5-5-5-7-----------|
                         |....p.m....|

[2:08-2:23] Guitars One and Two repeat the Verse progression

Bridge [2:24-3:07]
Two distorted guitars (I put into one: it sounds fine)
e|--------------------------------------------------------------------|
b|--------------------------------------------------------------------|
g|---------------------9--9-9-9--9-9-9--9--11--11-11-11--11-11-11--11-|
d|-9--9-9-9--9-9-9--9--x--x-x-x--x-x-x—-x--12--12-12-12--12-12-12--12-|
a|-x--x-x-x--x-x-x--x--7--7-7-7--7-7-7--7---x---x--x--x---x--x--x---x-|
e|-7--7-7-7--7-7-7--7----------------------10--10-10-10--10-10-10--10-|

Played five times (on the 2nd, it is played clean) then on the sixth

e|---------------------------------------------------------------------|
b|---------------------------------------------------------7-7-7-7-7-7-|
g|---------------------9--9-9-9--9-9-9--9------------------7-7-7-7-7-7-|
d|-9--9-9-9--9-9-9--9--x--x-x-x--x-x-x—-x------------------x-x-x-x-x-x-|
a|-x--x-x-x--x-x-x--x--7--7-7-7--7-7-7--7------------------5-5-5-5-5-5-|
e|-7--7-7-7--7-7-7--7----------------------3-3-3-3-3-3-3-3-3-3-3-3-3-3-|
                                           |......p.m....|

Distorted Chorus [3:08-3:36]

Outro [3:37-3:56]
“Come on Kylie, now you get what you deserve...”
e|------------------------------------------------------------|
b|---7----7-------7----7--------------------------------------|
g|---7----7-------7----7--------------------------------------|
d|-------------------------------4---5p4---4----4---5p4-------|
a|-----------------------------5---------3--------5-----5-----|
e|-7----7----5--5----5------3------3----------3---------------|

“Come on Kylie, now you get what you deserve...”
e|--------------------------------------|
b|---7----7-------7----7----7~----------|
g|---7----7-------7----7----7~----------|
d|--------------------------------------|
a|--------------------------------------|
e|-7----7----5--5----5------3~----------|


BVS=GOOD
Thanks for viewing this tab, and please email me if you have any questions or concerns 
is at the top)
  +++ ABOVE ALL: Please request my permission before copying this tab +++
    +++ (to another site or whatever) because as of now this is the +++
                      +++ only tab for this song.+++
Добавлено: 24.03.2012
Другие материалы по этой песне:
  • Аккорды и текст

Страница создана 24.03.2012
http://primanota.ru/bear-vs-shark/kylie-chords.htm
Привет, Гость.
Предлагаем пройти революционный курс по гитаре.
Подарок от PrimaNota.Ru, забирай!