PrimaNota.ru - самый крупный в мире бесплатный архив песенных текстов, аккордов, табулатур и нот


Bear Mccreary - Theme From Defiance - таба, видео

Регистрация Запомнить меня
Войти через:  Facebook Google Twitter Vk Yandex Mail.ru

Bear Mccreary - Theme From Defiance - таба, видео

Печатать
Просмотров: 50
-------------------------------------------------------------------------------
                             THEME FROM DEFIANCE - Bear McCreary
-------------------------------------------------------------------------------
Tabbed by: Todd Hailey
E-mail: Chewy1297@gmail.com

There's plenty of sound effects in this song that I can't
reproduce on a guitar, mainly because I'm not Tom Morello.
The song is not a guitar song, so some parts cannot be 
reproduced entirely correct. This is as close as I think
a guitar can get to it though. Get your stretch on for 
the full chorus.


Tuning: Standard

:NOTE:
Main Chord Structure For The Chorus:

                Emin   Gmaj   Cmaj   Amin

                Emin   Gmaj   C#min  Cmaj




________________________________________________________________________________________________________________

|:INTRO:|
                       Cmaj   C#m

                       Cmaj   C#m
________________________________________________________________________________________________________________

|:CHORUS:|
(slow)
e|---------------------------------------------------------------------------|
B|---------------------------------------------------------------------------|
G|---------------------------------------------------------------------------|
D|---------------7----------------------9--11---------------------------------|
A|--7--9-10-7--5----7-10-7---7--9-10-7--------11-9-11-7----------------------|
E|---------------------------------------------------------------------------|

________________________________________________________________________________________________________________

|:VERSE:|

                       Cmaj   C#m

                       Cmaj   C#m

                       Cmaj   C#m

                       Cmaj   C#m
________________________________________________________________________________________________________________

|:CHORUS:|

e|---------------------------------------------------------------------------|
B|---------------------------------------------------------------------------|
G|---------------------------------------------------------------------------|
D|---------------7--------------------9--11-----------------------------------|
A|--7--9-10-7--5----10-7---7--9-10-7--------11-9-11-7------------------------|
E|--0+------3+---8+----5+--0+------3+----9+---------8+-----------------------|

                  + | Hold Note
________________________________________________________________________________________________________________

|:BRIDGE:|

e|-----------------------12------|
B|--14-10-------10-12-14---------|
G|--------11t-9-------------12---|
D|-------------------------------|
A|-------------------------------|
E|-------------------------------|

________________________________________________________________________________________________________________

|:VERSE:|

                       Cmaj   C#m

                       Cmaj   C#m

                       Cmaj   C#m

                       Cmaj   C#m
________________________________________________________________________________________________________________

|:INTERLUDE:|

e|-----------------------------------------------------------------------------------------------------|
B|-----------------------------------------------------------------------------------------------------|
G|-----------------------------------------------------------------------------------------------------|
D|-----------------------------------------------------------------------------------------------------|
A|-----------------------------------------------------------------------------------------------------|
E|-0/12\0----0-0-0-0-0-0-0-0-0-0-0-0-0---1-1-1-1-1-1-1-1-1-1-1-1-1---0-0-0-0-1-1-1-1-1-1-1-1-3-3-3-3-0-|


e|---------------------------------------------------------------------------|
B|---------------------------------------------------------------------------|
G|---------------------------------------------------------------------------|
D|---------------------------------------------------------------------------|
A|---------------------------------------------------------------------------|
E|-0-0-0-0-0-0-0-0------13--13--13--13-13-13-13-13---------------------------|

This part can be very confusing, so let me clear it up:

E x13
F x13
E x4   F x8   G x4   E x1
E x8
F x8
________________________________________________________________________________________________________________

|:KEY CHANGE:|

    GUITAR 1
e|-----------------------------------------------------------|
B|------------------------------------11-13------------------|
G|-10-12-12-13-10--10-12-12-13--10-12-------13--10-12-12-13--|  x2
D|-----------------------------------------------------------|
A|-----------------------------------------------------------|
E|-----------------------------------------------------------|


    GUITAR 2
    (not matched up with guitar 1 rhythmically here)
e|------------------13--15-11----11h13-15b16--18---20--b22-------------------|
B|-------13b14--b13-----------13---------------------------------------------|
G|--13-----------------------------------------------------------------------|
D|---------------------------------------------------------------------------|
A|---------------------------------------------------------------------------|
E|---------------------------------------------------------------------------|
________________________________________________________________________________________________________________


|:BRIDGE:|

e|---------------------13------------------------------------|
B|--15-11-----11-13-15---------------------------------------|
G|--------12t-------------13---12-13-13----------------------|
D|---------------------------------------14-13-------13-14---|
A|---------------------------------------------14-16---------|
E|-----------------------------------------------------------|
________________________________________________________________________________________________________________


|:VERSE:|

                       Cmaj   C#m

                       Cmaj   C#m

________________________________________________________________________________________________________________

|:CHORUS:|

e|---------------------------------------------------------------------------|
B|---------------------------------------------------------------------------|
G|---------------------------------------------------------------------------|
D|---------------7--------------------9--11-----------------------------------|
A|--7--9-10-7--5----10-7---7--9-10-7--------11-9-11-7------------------------|
E|--0+------3+---8+----5+--0+------3+----9+---------8+-----------------------|
________________________________________________________________________________________________________________


|:OUTRO:|

                       Cmaj   C#m

                       Cmaj   C#m

                       Cmaj   C#m

                       Cmaj   C#m

e|-----------------------------------------------------------------------------------------------------------|
B|---------------5---5---5---5---5---5---5---5-------------------------5---5---5-----------------------------|
G|---------------5---5---5---5---5---5---5---5-------------------------6---6---6-----------------------------|
D|---------------5---5---5---5---5---5---5---5---------7~--------------6---6---6-----------------------------|
A|---3/15\4--4d--3-3---3---3---3---3---3---3---3----4---------3/15\4---4-4---4---4--3-----4--4d---3/15\4-----|
E|-----------------------------------------------------------------------------------------------------------|

****************************************************************************************************************

| /   slide up
| \   slide down
| h   hammer-on
| p   pull-off
| ~   vibrato
| x   Mute note
| b   Bend
| +   Hold note
| d   Whammy Dive

****************************************************************************************************************
Добавлено: 05.06.2016
Другие материалы по этой песне:
  • Аккорды и текст

Страница создана 05.06.2016
http://primanota.ru/bear-mccreary/theme-from-defiance-chords.htm
Привет, Гость.
Предлагаем пройти революционный курс по гитаре.
Подарок от PrimaNota.Ru, забирай!