PrimaNota.ru - самый крупный в мире бесплатный архив песенных текстов, аккордов, табулатур и нот


Bear Mccreary - Kara Remembers - таба, видео

Регистрация Запомнить меня
Войти через:  Facebook Google Twitter Vk Yandex Mail.ru

Bear Mccreary - Kara Remembers - таба, видео

Печатать
Просмотров: 439
Уроки эстрадного вокала в Санкт-Петербурге
Авторы музыки: Bear McCreary

-------------------------------------------------------------------------------
                             Kara Remembers - Bear McCreary
-------------------------------------------------------------------------------
Tabbed by: Mert YURUK
E-mail: mertyuruq@hotmail.com

Tuning: Capo 4th fret

e|--------------------------------------|
B|---1-1-1-1----1-1----1-1-1------------|
G|---2-2-2-2----3-3----2-2-2------------|   1st Part
D|---2-2-2-2----3-3----3-3-3------------|
A|---0-0-0-0----1-1----3-3-3------------|
E|--------------------------------------|

e|---------------------1-0---1-0---------------|
B|---1-1-1-1---------1-----1-----1-------------|
G|---2-2-2-2-----2-3---------------3-----------|   Bridge
D|---2-2-2-2-----------------------------------|
A|---0-0-0-0-----------------------------------|
E|---------------------------------------------|

e|---------------------------------------------|
B|---------------------------------------------|
G|---2-2-2-2----3---3----2-2---2---------------|   2nd Part
D|---2-2-2-2----3---3----2-2---3---------------|
A|---0-0-0-0----1---1----0-0---0---------------|
E|---------------------------------------------|

e|---------------------------------------------|
B|---------------------------------------------|
G|---2-2-2-2-----------------------------------|   Brigde
D|---2-2-2-2----------3-2---3-2----------------|
A|---0-0-0-0----0-1-3-----3-----3-1------------|
E|---------------------------------------------|

e|---------------------------------------------|
B|---------------------------------------------|
G|---2-2-2-2----3---3----2-2-------------------|   3rd Part
D|---2-2-2-2----3---3----2-2-------------------|
A|---0-0-0-0----1---1----0-0-------------------|
E|---------------------------------------------|




************************************

| /   slide up
| \   slide down
| h   hammer-on
| p   pull-off
| ~   vibrato
| +   harmonic
| x   Mute note
| b   Bend
| pb  Pre-bend
| br  Bend release
| pbr Pre-bend release
| brb Bend release bend

************************************
Добавлено: 09.08.2015
Вам также может быть интересно:
Другие материалы по этой песне:
  • Аккорды и текст

Страница создана 09.08.2015
http://primanota.ru/bear-mccreary/kara-remembers-chords.htm
Привет, Гость.
Предлагаем пройти революционный курс по гитаре.
Подарок от PrimaNota.Ru, забирай!