PrimaNota.ru - самый крупный в мире бесплатный архив песенных текстов, аккордов, табулатур и нот


Beach Fossils - Window View - таба, видео

Регистрация Запомнить меня
Войти через:  Facebook Google Twitter Vk Yandex Mail.ru

Beach Fossils - Window View - таба, видео

Печатать
Просмотров: 97
Beach Fossils - Window View
From the album Beach Fossils (captured tracks 2010).

Tabbed by Isaac Murguia, June 2012.
YouTube: Goadiroth

INTRO: (x4)
e|-----------2222222-|
B|-----------2222222-|
G|-----------4444444-|
D|-444-22222-2222222-|
A|-222-22222-2222222-|
E|-------------------|

VERSE: (x8)
  Guitar I                          (8th time)
e|-7777777/--12-12-12-12-12-12-12-|-7777777/--12-12-12-12--------|
B|-7777777/--12-12-12-12-12-12-12-|-7777777/--12-12-12-12----2---|
G|-8888888/--13-13-13-13-13-13-13-|-8888888/--13-13-13-13--4---4-|
D|--------------------------------|------------------------------|
A|--------------------------------|------------------------------|
E|--------------------------------|------------------------------|

  Guitar II                (8th time)
e|-----------------------|-------------------------|
B|-----------------------|---------------------2---|
G|-----------------------|-------------------4---4-|
D|-----------------------|-------------------------|
A|-666-444-6------22222--|-666-444-6------2--------|
E|------------444--------|------------444----------|

CHORUS: (x2)
        (x4)              (x4)           play this at very end of chorus
e|-----------------|-2---2-----------|  |-2---2-----------|-------|
B|-4---4---2---2---|---4---4-2---2---|  |---4---4-2---2-4-|-------|
G|---4---4---4---4-|-----------4---4-|  |-----------4-----|-4-----|
D|-----------------|-----------------|  |-----------------|-------|
A|-----------------|-----------------|  |-----------------|-------|
E|-----------------|-----------------|  |-----------------|-------|

VERSE (mainly just Guitar I)
CHORUS (x4 this time)

End.
Добавлено: 20.08.2013
Другие материалы по этой песне:
  • Аккорды и текст

Страница создана 20.08.2013
http://primanota.ru/beach-fossils/window-view-chords.htm
Привет, Гость.
Предлагаем пройти революционный курс по гитаре.
Подарок от PrimaNota.Ru, забирай!