PrimaNota.ru - самый крупный в мире бесплатный архив песенных текстов, аккордов, табулатур и нот


Beach Fossils - Shallow - таба, видео

Регистрация Запомнить меня
Войти через:  Facebook Google Twitter Vk Yandex Mail.ru

Beach Fossils - Shallow - таба, видео

Печатать
Просмотров: 163
Beach Fossils - Shallow
A-side from the Shallow 7" (captured tracks 2012).

Tabbed by Isaac Murguia, July 2012.
YouTube: Goadiroth

INTRO CHORDS:
e|--------------|
B|--------------|
G|-8----9-------|
D|-9----9-------|
A|-7----7-------|
E|-0----0-------|

VERSE:
            (x2)
e|----------------------------|-----------------------------------------|
B|----------------------------|-9-9-99-99-999--12-1212-1212-1212-121212-|
G|-9998--8-11-11-11-8--898--8-|-----------------------------------------|
D|----------------------------|-----------------------------------------| (x2)
A|----------------------------|-----------------------------------------|
E|----------------------------|-----------------------------------------|

CHORUS:
           (x2)                          (x2)                (x2)
e|----11----11----11----11----11-|-------------------|-------------------|
B|-14----14----14----14----14----|-------------------|-12121212-12121212-|
G|-------------------------------|-13131313-13131313-|-------------------|
D|-------------------------------|-------------------|-------------------| (x2)
A|-------------------------------|-------------------|-------------------|
E|-------------------------------|-------------------|-------------------|

Repeat VERSE

BRIDGE: (x4)
e|-------------------|-----------|-----------|-------------------|
B|-12121212-12121212-|-7777-7777-|-9999-9999-|-12121212-12121212-|
G|-------------------|-----------|-----------|-------------------|
D|-------------------|-----------|-----------|-------------------|
A|-------------------|-----------|-----------|-------------------|
E|-------------------|-----------|-----------|-------------------|

e|-----------|-----------|-------------------|-----------|
B|-7777-7777-|-9999-9999-|-12121212-12121212-|-7777-7777-|
G|-----------|-----------|-------------------|-----------|
D|-----------|-----------|-------------------|-----------|
A|-----------|-----------|-------------------|-----------|
E|-----------|-----------|-------------------|-----------|

Repeat CHORUS (x5)

ENDING CHORD:
e|-----------|
B|-----------|
G|-8---------|
D|-9---------|
A|-7---------|
E|-0---------|
Добавлено: 15.07.2013
Другие материалы по этой песне:
  • Аккорды и текст

Страница создана 15.07.2013
http://primanota.ru/beach-fossils/shallow-chords.htm
Привет, Гость.
Предлагаем пройти революционный курс по гитаре.
Подарок от PrimaNota.Ru, забирай!