PrimaNota.ru - самый крупный в мире бесплатный архив песенных текстов, аккордов, табулатур и нот


Beach Fossils - Saturday - бас-таба, видео

Регистрация Запомнить меня
Войти через:  Facebook Google Twitter Vk Yandex Mail.ru

Beach Fossils - Saturday - бас-таба, видео

Печатать
Просмотров: 92
-----------------------------------------------------------------
Saturday – Beach Fossils
-----------------------------------------------------------------
Tabbed By: Madrone6
e-mail: je.mathnerd15@gmail.com
Tuning: Standard

Intro: (x1)

G|----------------|----------------|----------------|----------------|
D|7-7---7-7-7---7-|7-7---7-7-7---7-|----------------|----------------|
A|----------------|----------------|9-9---9-9-9---9-|9-9---9-9-9---9-|
E|----------------|----------------|----------------|----------------|

G|----------------|----------------|----------------|----------------|
D|7-7---7-7-7---7-|7-7---7-7-7---7-|----------------|----------9-9-9-|
A|----------------|----------------|9-9---9-9-9---9-|7-7---7-7-------|
E|----------------|----------------|----------------|----------------|

Verse: Intro (x2)

Chorus: (x2)

G|----------------|----------------|----------------|----------------|
D|----------------|----------------|----------------|7-------7-7-7-7-|
A|5-5---5-5-5---5-|5-5---5-5-5---5-|9-9---9-9-9---9-|----------------|
E|----------------|----------------|----------------|----------------|

Break 1: (x1)

G|----------------|----------------|
D|7-7---7-7-7---7-|7-7---7-7-7---7-|
A|----------------|----------------|
E|----------------|----------------|

Verse: (x2)

Break 2: (x2)

G|----------------|----------------|----------------|
D|----------------|--------------7-|7-----7-7-7-7-7-|
A|5-5-5-----5-5-5-|----9-9-9-------|----------------|
E|----------------|----------------|----------------|

Outro: Chorus (x4)



| /  slide up
| \  slide down
| h  hammer-on
| p  pull-off
| ~  vibrato
| +  harmonic
| x  Mute note
Добавлено: 18.09.2013
Другие материалы по этой песне:
  • Аккорды и текст

Страница создана 18.09.2013
http://primanota.ru/beach-fossils/saturday-chords.htm
Привет, Гость.
Предлагаем пройти революционный курс по гитаре.
Подарок от PrimaNota.Ru, забирай!