PrimaNota.ru - самый крупный в мире бесплатный архив песенных текстов, аккордов, табулатур и нот


Beach Fossils - Golden Age - таба, видео

Регистрация Запомнить меня
Войти через:  Facebook Google Twitter Vk Yandex Mail.ru

Beach Fossils - Golden Age - таба, видео

Печатать
Просмотров: 280
Уроки эстрадного вокала в Санкт-Петербурге
Artist: BEACH FOSSILS
Album:  BEACH FOSSILS
Song:   GOLDEN AGE

so this is my first tab... i hope it's useful... 
i haven't manage to get the rythim guitar on the chorus...

i split the song on rythim and lead guitar... this song is very simple...

GUITAR 1 (RYTHIM)

INTRO / VERSE (slightly overdrive w/ spring reverb)
e|---------------|----------------|---------------|----------------|
b|---------------|----------------|---------------|----------------|
G|---------------|----------------|---------------|----------------|     PLAY AS MANY
D|-7--7-7--7-7-7-|-7--7-7-7/6-6/4-|-4--4-4--4-4-4-|-4--4-4-4\6-6\7-|     TIMES NEEDED
A|---------------|----------------|---------------|----------------|
E|---------------|----------------|---------------|----------------|


    I HAVEN'T MANAGE TO GET THE RYTHIM GUITAR FOR THE CHORUS
               WHEN I GET IT I'LL UPDATE THE TAB


GUITAR 2 (LEAD)

INTRO (slightly overdrive w/ slap back delay/echo)                                          x2
e|-9------------------|-9------------------|-9------------------|-12----12----12----12----|
b|---10---10-----10---|---10---10-----10---|---10---10-----10---|----10----10----10----10-|
G|------9------9----9-|------9------9----9-|------9------9----9-|-------------------------|
D|--------------------|--------------------|--------------------|-------------------------|
A|--------------------|--------------------|--------------------|-------------------------|
E|--------------------|--------------------|--------------------|-------------------------|


CHORUS / OUTRO                                                                 x4
e|-----------------|-----------------------|---------------|------------------|
b|---9---9---9-----|-10-10-10-12--12-12-12-|-7----7----7---|------------------|
G|-9---9---9---9---|-----------------------|---7----7----7-|-6-6-6-6\9--9-9-9-|
D|-----------------|-----------------------|---------------|------------------|
A|-----------------|-----------------------|---------------|------------------|
E|-----------------|-----------------------|---------------|------------------|

    SO THERE IT IS... I HOPE IT WAS USEFUL... PLEASE RATE IT... ;)
    ANY COMMENTARY OR SUGGESTION SEND ME AND EMAIL: irving_4_@hotmail.com
Добавлено: 17.05.2012
Другие материалы по этой песне:
  • Аккорды и текст

Страница создана 17.05.2012
http://primanota.ru/beach-fossils/golden-age-chords.htm
Привет, Гость.
Предлагаем пройти революционный курс по гитаре.
Подарок от PrimaNota.Ru, забирай!