PrimaNota.ru - самый крупный в мире бесплатный архив песенных текстов, аккордов, табулатур и нот


Beach Fossils - Generational Synthetic - таба, видео

Регистрация Запомнить меня
Войти через:  Facebook Google Twitter Vk Yandex Mail.ru

Beach Fossils - Generational Synthetic - таба, видео

Печатать
Просмотров: 210
Уроки эстрадного вокала в Санкт-Петербурге
Авторы: Dustin Payseur

Beach Fossils - Generational Synthetic
From the album Clash The Truth (Captured Tracks 2013).

Tabbed by Isaac Murguia (April 15, 2013).
YouTube: Goadiroth

Please rate if you like it!

INTRO/VERSE:
e|-------------------------------|
B|-------------------------------|
G|-------------------------------|
D|-------------------------------|
A|--------------7-6--------------|
E|-7-77-7777777-----4-44-4444444-| [x6]

CHORUS:
  Lead (Dustin):
e|----------------------------|
B|----------------------------|
G|-8---------------------9999-|
D|---6-9-9-9999-11-9-6-6------|
A|----------------------------|
E|----------------------------| [x4]

  Rhythm (Tommy):
e|----------------------------|
B|----------------------------|
G|----------------------------|
D|----------------------------|
A|-6------------4-------7777--|
E|---4-7-7-7777---7-4-4-------| [x4]

Repeat INTRO/VERSE [x2]

BRIDGE:
  Lead (Dustin):
e|-------------------------------|
B|-----12----14-12---------------|
G|-13-----13-------13--11-13-8-9-|
D|-------------------------------|
A|-------------------------------|
E|-------------------------------| [x4]

  Rhythm (Tommy):
e|----------------------------|
B|----------------------------|
G|----------------------------|
D|-----9----11-9--------------|
A|-11----11------11--9-11-6-7-|
E|----------------------------| [x4]

OUTRO:
  Lead (Dustin):
e|-------------------------------------|-------------------------------------|
B|-------------------------------------|-------------------------------------|
G|-9-99-99-9999-9999-8-88-88-8888-8888-|-------------------------------------|
D|-------------------------------------|-9-99-99-9999-9999-6-66-66-6666-6666-|
A|-------------------------------------|-------------------------------------|
E|-------------------------------------|-------------------------------------|

  Rhythm (Tommy):
e|-------------------------------------|-------------------------------------|
B|-------------------------------------|-------------------------------------|
G|-------------------------------------|-------------------------------------|
D|-------------------------------------|-------------------------------------|
A|-7-77-77-7777-7777-6-66-66-6666-6666-|-------------------------------------|
E|-------------------------------------|-7-77-77-7777-7777-4-44-44-4444-4444-|

Repeat until end pretty much. Cheers!
Добавлено: 03.08.2013
Другие материалы по этой песне:
  • Аккорды и текст

Страница создана 03.08.2013
http://primanota.ru/beach-fossils/generational-synthetic-chords.htm
Привет, Гость.
Предлагаем пройти революционный курс по гитаре.
Подарок от PrimaNota.Ru, забирай!