PrimaNota.ru - самый крупный в мире бесплатный архив песенных текстов, аккордов, табулатур и нот


Beach Fossils - Birthday - таба, видео

Регистрация Запомнить меня
Войти через:  Facebook Google Twitter Vk Yandex Mail.ru

Beach Fossils - Birthday - таба, видео

Печатать
Просмотров: 172
Beach Fossils - Birthday
From their 2nd album "Clash The Truth" (Captured Tracks 2013).

Tabbed by Isaac Murguia, February 2013.
YouTube: Goadiroth

\ / = triplets

  INTRO CHORDS:
e|--------------------------|
B|--------------------------|
G|-11-----7-----4-----7-----|
D|-11-----7-----4-----7-----| listen to song for strumming pattern;
A|-9------5-----2-----5-----| it's easy!
E|--------------------------|

      CHORUS: [x2]
e|---|-5555---------------------------------------------------------|
B|---|------7777-----------------------------------77------------77-|
G|-7-|-----------7777-6666-6444-4442-2222-2222-444------222/4-44----|
D|---|--------------------------------------------------------------|
A|---|--------------------------------------------------------------|
E|---|--------------------------------------------------------------|

  VERSE: [x4]
e|--------------------------------------------------|
B|--------------------------------------------------|
G|-11-111111--9-\-7-7--999-77-\-4-4-444-2-----------|
D|----\----/------------------------\-/---4-444-444-|
A|--------------------------------------------------|
E|--------------------------------------------------|

Repeat CHORUS [x2]
Repeat VERSE [x4]

  BRIDGE A: [x4]
e|----------------------------|
B|----000---0---------5----77-|
G|-22-----2---2--/777---66----|
D|----------------------------|
A|----------------------------|
E|----------------------------|

  BRIDGE B:
e|-----------------------------------|-----------------------------------|
B|-----------------------------------|-----------------------------------|
G|-----------------------------------|-----------------------------------|
D|-0-0-00-0-000-000-4-4-44-4-444-444-|-2-2-22-2-222-020-2-222-0----------|
A|-----------------------------------|--------------------------2-222-22-|
E|-----------------------------------|-----------------------------------|

  OUTRO A: [x2]
e|------------------------------|-----------------------|
B|------------------------------|-----------------------|
G|------------------------------|-----------------------|
D|-111111-11-11-11-9-777-777-99-|-4-444-2-4-/-7-777-777-|
A|-\----/-----------------------|-----------------------|
E|------------------------------|-----------------------|

e|-----------------------------------------------|
B|-----------------------------------------------|
G|-141414--14-14-14-14--11-11-11--11-11-11-11-11-|
D|-\----/----------------------------------------|
A|-----------------------------------------------|
E|-----------------------------------------------|

e|--------------------------------------------------|
B|--------------------------------------------------|
G|-141414--14-14-14-16-16--11-11-11--11-11-11-11-11-|
D|-\----/-------------------------------------------|
A|--------------------------------------------------|
E|--------------------------------------------------|

  OUTRO B:
e|------------------------------|-----------------------|
B|------------------------------|-----------------------|
G|------------------------------|-----------------------|
D|-111111-11-11-11-9-777-777-99-|-4-444-2-4-/-7-777-777-|
A|-\----/-----------------------|-----------------------|
E|------------------------------|-----------------------|

e|-----------------------------------------------|
B|-----------------------------------------------|
G|-141414--14-14-14-12--11-11-11--11-11-11-11-11-|
D|-\----/----------------------------------------|
A|-----------------------------------------------|
E|-----------------------------------------------|

e|--------------------------------------------------|
B|--------------------------------------------------|
G|-141414--14-14-14-16-16--11-11-11--11-11-11-11-11-|
D|-\----/-------------------------------------------|
A|--------------------------------------------------|
E|--------------------------------------------------|

End. Please rate!
Добавлено: 30.08.2013
Другие материалы по этой песне:
  • Аккорды и текст

Страница создана 30.08.2013
http://primanota.ru/beach-fossils/birthday-chords.htm
Привет, Гость.
Предлагаем пройти революционный курс по гитаре.
Подарок от PrimaNota.Ru, забирай!