PrimaNota.ru - самый крупный в мире бесплатный архив песенных текстов, аккордов, табулатур и нот


Beach Boys - Surfs Up - текст песни, бас-таба, видео

Регистрация Запомнить меня
Войти через:  Facebook Google Twitter Vk Yandex Mail.ru

Beach Boys - Surfs Up - текст песни, бас-таба, видео

Печатать
Просмотров: 304
-------------------------------------------------------------------------------
			SURF'S UP - The Beach Boys
-------------------------------------------------------------------------------

Band: The Beach Boys
Song: Surf's Up
Album: Surf's Up (1971)

Tabbed by: Pascual Rambert (Chasco-Mousse, Argentina)
Tuning: Standard

---1---
G|-----------------|-----------------|-----------------|-----------------|
D|-----------------|-----------------|-5-~-~-5-~-~-~-5-|-~-~-~-5-~-~-~-5-| (x2)
A|-5-~-~-5-~-~-~-5-|-~-~-~-5-~-~-~-5-|-----------------|-----------------|
E|-----------------|-----------------|-----------------|-----------------|

G|-3-~-~-3---------|-5-~-~-5-~-~-~-5-|-~-~-~-5-~-~-~-5-|-----------------|
D|---------5-~-~-5-|-----------------|-----------------|-----------------|
A|-----------------|-----------------|-----------------|-5-~-~-5-~-~-~-5-|
E|-----------------|-----------------|-----------------|-----------------|

G|-----------------|-----------------|-----------------|-----------------|
D|-5-~-~-5-~-~-~-5-|-7-~-~-7-~-~-~-7-|-~-~-~-7-~-~-~-7-|-~-~-~-~-~-~-~-~-|
A|-----------------|-----------------|-----------------|-----------------|
E|-----------------|-----------------|-----------------|-----------------|

---2--- (0.46)
G|-----------------|-----------------|-----------------|-----------------|
D|-----------------|-----------------|-5-~-~-5-~-~-~-5-|-~-~-~-5-~-~-~-5-| (x2)
A|-5-~-~-5-~-~-~-5-|-~-~-~-5-~-~-~-5-|-----------------|-----------------|
E|-----------------|-----------------|-----------------|-----------------|

G|-3-~-~-3---------|-5-~-~-5-~-~-~-5-|-~-~-~-5-~-~-~-5-|-----------------|
D|---------5-~-~-5-|-----------------|-----------------|-----------------|
A|-----------------|-----------------|-----------------|-5-~-~-5-~-~-~-5-|
E|-----------------|-----------------|-----------------|-----------------|

G|-----------------|-----------------|-----------------|-7-~-7-~-9-~-10~-|-----------------|
D|-5-~-~-5-~-~-~-5-|-7-~-~-7-~-~-~-7-|-~-~-~-7-~-~-~-7-|-----------------|-----------------|
A|-----------------|-----------------|-----------------|-----------------|-5-~-~-~-~-~-~-~-|
E|-----------------|-----------------|-----------------|-----------------|-----------------|

---3--- (1.37)
G|-----------------|-----------------|-----------------|-----------------|
D|--------*--------|--------*--------|--------*--------|--------*--------|
A|-----------------|-----------------|-----------------|-----------------|
E|-----------------|-----------------|-----------------|-----------------|

G|-----------------|-----------------|-----------------|-----------------|
D|--------*--------|--------*--------|--------*--------|--------*--------|
A|-----------------|-----------------|-----------------|-----------------|
E|-----------------|-----------------|-----------------|-----------------|

G|-----------------|-----------------|-----------------|-----------------|
D|-----------------|-----------------|-----------------|-----------------|
A|-5-~-~-~-~-~-~-~-|-~-~-~-~-~-~-~-~-|-----------------|-----------------|
E|-----------------|-----------------|-1-~-~-~-~-~-~-~-|-~-~-~-~-~-~-~-~-|

(2.06)
G|-----------------|-----------------|-----------------|
D|-----------------|-----------------|-----------------|
A|-5-~-~-~-~-~-~-~-|-~-~-~-~-~-~-~-~-|-----------------|
E|-----------------|-----------------|-0-h-1-~-~-~-~-~-|

G|-----------------|-----------------|-----------------|-----------------|
D|-----------------|-----------------|-----------------|-----------------|
A|-5-~-~-~-~-~-~-~-|-3-~-~-~-~-~-~-~-|-----------------|-----------------|
E|-----------------|-----------------|-1-~-~-~-~-~-~-~-|-~-~-~-~-~-~-~-~-|

G|-----------------|-----------------|-----------------|-----------------|
D|-----------------|-----------------|-----------------|-----------------|
A|-5-~-~-~-~-~-~-~-|-~-~-~-~-~-~-~-~-|-3-~-~-~-~-~-~-~-|(3)~-~-~-~-~-~-~-|
E|-----------------|-----------------|-----------------|-----------------|

G|-----------------|-----------------|
D|-----------------|-----------------|
A|-----------------|-----------------|
E|-1-~-~-~-~-~-~-~-|-~-~-~-~-~-~-~-~-|

---4--- (2.35) (Contrabass with bow)
G|-----------------|-----------------|-----------------|-----------------|
D|(1)~-~-~-~-~-~-~-|-~-~-~-~-~-~-~-~-|-----------------|-----------------|
A|-----------------|-----------------|(1)~-~-~-~-~-~-~-|-~-~-~-~-~-~-~-~-|
E|-----------------|-----------------|-----------------|-----------------|

G|-----------------|-----------------|-----------------|-----------------|
D|(3)~-~-~-~-~-~-~-|-~-~-~-~-~-~-~-~-|-----------------|-----------------|
A|-----------------|-----------------|(1)~-~-~-~-~-~-~-|-~-~-~-~-~-~-~-~-|
E|-----------------|-----------------|-----------------|-----------------|

G|-----------------|-----------------|-----------------|-----------------|
D|-----------------|-----------------|-----------------|-----------------|
A|-4-~-~-~-~-~-~-~-|-3-~-~-~-~-~-~-~-|-----------------|-----------------|
E|-----------------|-----------------|-1-~-~-~-~-~-~-~-|-~-~-~-~-~-~-~-~-|

G|-----------------|-----------------|
D|-----------------|-----------------|
A|-1-~-~-~-~-~-~-~-|-3-~-~-~-~-~-~-~-|
E|-----------------|-----------------|

---5--- (3.09)
  (Fm7)             (Cm7/F)           (Bb)              (Cm)   
G|-----------------|-----------------|---------3--3-33-|-5---------------|
D|-----------------|-----------------|----------3------|-----5-----------| (x5)
A|--------------3--|--------------3--|-1---------------|----3------------|
E|-1---------------|-1---------------|-----------------|--------34--3-31-|

This last part has a strange rhythm.
Listen carefully for the timing, especially the last two bars.
Добавлено: 26.06.2012
Другие материалы по этой песне:

Страница создана 21.03.2012
http://primanota.ru/beach-boys/surfs-up-chords.htm
Привет, Гость.
Предлагаем пройти революционный курс по гитаре.
Подарок от PrimaNota.Ru, забирай!