PrimaNota.ru - самый крупный в мире бесплатный архив песенных текстов, аккордов, табулатур и нот


Beach Boys - Little Surfer Girl - бас-таба, видео

Регистрация Запомнить меня
Войти через:  Facebook Google Twitter Vk Yandex Mail.ru

Beach Boys - Little Surfer Girl - бас-таба, видео

Печатать
Просмотров: 60
-------------------------------------------------------------------------------
                     Little Surfer Girl - The Beach Boys
-------------------------------------------------------------------------------

Tabbed by: RagnaarMN

Tuning: Standard
Key of D Major and D# Major

Intro:
G|----------------|----------------|----------------|----------------|
D|0---------------|----------------|----------------|----------------|
A|----------------|2---------------|----------------|0---------------|
E|----------------|----------------|3---------------|----------------|

G|----------------|----------------|----------------|----------------|
D|0---------------|0---------------|----------------|----------------|
A|----------------|----------------|----------------|----------------|
E|----------------|----------------|3---------------|----------------|

Verse:
G|----------------|----------------|----------------|----------------|
D|0-----------0---|----------------|----------------|----------------|
A|----------------|2-----------2---|----------------|0-----------0---|
E|----------------|----------------|3-----------3---|----------------|

G|----------------|----------------|----------------|----------------|
D|0-----------0---|0-----------0---|----------------|----------------|
A|----------------|----------------|----------------|----------------|
E|----------------|----------------|3-----------3---|3-----------3---|

G|----------------|----------------|----------------|----------------|
D|0-----------0---|----------------|----------------|----------------|
A|----------------|2-----------2---|----------------|0-----------0---|
E|----------------|----------------|3-----------3---|----------------|

G|----------------|----------------|----------------|----------------|
D|0-----------0---|0-----------0---|----------------|----------------|
A|----------------|----------------|----------------|--------0---2---|
E|----------------|----------------|3-----------3---|3---------------|

Verse:
G|----------------|----------------|----------------|----------------|
D|0-----------0---|----------------|----------------|----------------|
A|----------------|2-----------2---|----------------|0-----------0---|
E|----------------|----------------|3-----------3---|----------------|

G|----------------|----------------|----------------|----------------|
D|0-----------0---|0-----------0---|----------------|----------------|
A|----------------|----------------|----------------|----------------|
E|----------------|----------------|3-----------3---|3-----------3---|

G|----------------|----------------|----------------|----------------|
D|0-----------0---|----------------|----------------|----------------|
A|----------------|2-----------2---|----------------|0-----------0---|
E|----------------|----------------|3-----------3---|----------------|

G|----------------|----------------|----------------|----------------|
D|0-----------0---|0-----------0---|----------------|----------------|
A|----------------|----------------|----------------|--------0-------|
E|----------------|----------------|3-----------3---|3-----------2---|

Bridge:
G|----------------|----------------|----------------|----------------|
D|----------------|----------------|0-----------0---|----------------|
A|------------0---|0-----------0---|----------------|2-----------2---|
E|3---------------|----------------|----------------|----------------|

G|----------------|----------------|----------------|----------------|
D|----------------|----------------|0-----------0---|0-----------0---|
A|----------------|0-----------0---|----------------|----------------|
E|3-----------3---|----------------|----------------|----------------|

G|----------------|----------------|----------------|----------------|
D|----------------|----------------|0-----------0---|----------------|
A|----------------|0-----------0---|----------------|2-----------2---|
E|3-----------3---|----------------|----------------|----------------|

G|----------------|----------------|----------------|----------------|
D|----------------|----------------|----------------|----------------|
A|----------------|----------------|0---0---0---0---|1---1---1---1---|
E|0-----------0---|0-----------0---|----------------|----------------|

(Key shifts up a fret)
Verse:
G|----------------|----------------|----------------|----------------|
D|1-----------1---|----------------|----------------|----------------|
A|----------------|3-----------3---|----------------|1-----------1---|
E|----------------|----------------|4-----------4---|----------------|

G|----------------|----------------|----------------|----------------|
D|1-----------1---|1-----------1---|----------------|----------------|
A|----------------|----------------|----------------|----------------|
E|----------------|----------------|4-----------4---|4-----------4---|

G|----------------|----------------|----------------|----------------|
D|1-----------1---|----------------|----------------|----------------|
A|----------------|3-----------3---|----------------|1---------------|
E|----------------|----------------|4-----------4---|----------------|

G|----------------|----------------|----------------|----------------|
D|1-----------1---|1-----------1---|----------------|------------0---|
A|----------------|----------------|----------------|--------1-------|
E|----------------|----------------|4-----------4---|4---------------|

Keep repeating above 4 bars. 

This is the novice version. Credit to PilotMusicRoom's video on youtube. 

===============================================================================
Добавлено: 02.05.2016
Другие материалы по этой песне:
  • Аккорды и текст

Страница создана 02.05.2016
http://primanota.ru/beach-boys/little-surfer-girl-chords.htm
Привет, Гость.
Предлагаем пройти революционный курс по гитаре.
Подарок от PrimaNota.Ru, забирай!