PrimaNota.ru - самый крупный в мире бесплатный архив песенных текстов, аккордов, табулатур и нот


Beach Boys - Koko - таба, видео

Регистрация Запомнить меня
Войти через:  Facebook Google Twitter Vk Yandex Mail.ru

Beach Boys - Koko - таба, видео

Печатать
Просмотров: 149
KOKOMO

As recorded by The Beach Boys
(From the 1989 Album STILL CRUISIN')


Words and Music by Mike Love, Terry Melcher, John Phillips & Scott McKenzie
Transcribed by Slowhand


Gtr I (E A D G B E) - 'Acoustic Guitar 1'
Gtr II (E A D G B E) - 'Acoustic Guitar 2'


 Intro
  Q=116
  N.C.
 4/4
  Gtr I
  Wx9
|--------||
|--------||
|--------||
|--------||
|--------||
|--------||


 1st Verse
  C CmajC         Cmaj7
  E E E E +E  E E E   E E E E +E  E E E
|-0-0-x-0-(0)-0-x-0-|-0-0-x-0-(0)-0-x-0-|
|-1-0-x-1-(1)-1-x-0-|-0-0-x-0-(0)-0-x-0-|
|-0-0-x-0-(0)-0-x-0-|-0-0-x-0-(0)-0-x-0-|
|-2-2-x-2-(2)-2-x-2-|-2-2-x-2-(2)-2-x-2-|
|-3-3-x-3-(3)-3-x-3-|-3-3-x-3-(3)-3-x-3-|
|-------------------|-------------------|


  Gm7                 F               Fm
  E E E E +E  E E E   E E E E +E  E E E
|-3-3-x-3-(3)-3-x-x-|-1-1-x-1-(1)-1-x-1-|
|-3-3-x-3-(3)-3-x-x-|-1-1-x-1-(1)-1-x-1-|
|-3-3-x-3-(3)-3-x-x-|-2-2-x-2-(2)-2-x-1-|
|-3-3-x-3-(3)-3-x-x-|-3-3-x-3-(3)-3-x-3-|
|-5-5-x-5-(5)-5-x-x-|-3-3-x-3-(3)-3-x-3-|
|-3-3-x-3-(3)-3-x-x-|-1-1-x-1-(1)-1-x-1-|


                      C
  E E E E +E  E E E   E E E E +E  E E E
|-1-1-x-1-(1)-1-x-1-|-0-0-x-0-(0)-0-x-x-|
|-1-1-x-1-(1)-1-x-1-|-1-1-x-1-(1)-1-x-x-|
|-1-1-x-1-(1)-1-x-1-|-0-0-x-0-(0)-0-x-x-|
|-3-3-x-3-(3)-3-x-3-|-2-2-x-2-(2)-2-x-x-|
|-3-3-x-3-(3)-3-x-3-|-3-3-x-3-(3)-3-x-x-|
|-1-1-x-1-(1)-1-x-1-|-------------------|


  D9              G7                  C
  E E E E +E  E E E   E E E E +E  E E E
|-----------------3-|-3-3-x-3-(3)-3-x-0-||
|-5-5-x-5-(5)-5-x-3-|-3-3-x-3-(3)-3-x-1-||
|-5-5-x-5-(5)-5-x-4-|-4-4-x-4-(4)-4-x-0-||
|-4-4-x-4-(4)-4-x-3-|-3-3-x-3-(3)-3-x-2-||
|-5-5-x-5-(5)-5-x-5-|-5-5-x-5-(5)-5-x-3-||
|-----------------3-|-3-3-x-3-(3)-3-x---||


 2nd & 4th Verses
  $$
  C CmajC         Cmaj7
  E E E E +E  E E E   E E E E +E  E E E
|-0-0-x-0-(0)-0-x-0-|-0-0-x-0-(0)-0-x-0-|
|-1-0-x-1-(1)-1-x-0-|-0-0-x-0-(0)-0-x-0-|
|-0-0-x-0-(0)-0-x-0-|-0-0-x-0-(0)-0-x-0-|
|-2-2-x-2-(2)-2-x-2-|-2-2-x-2-(2)-2-x-2-|
|-3-3-x-3-(3)-3-x-3-|-3-3-x-3-(3)-3-x-3-|
|-------------------|-------------------|


  Gm7                 F               Fm
  E E E E +E  E E E   E E E E +E  E E E
|-3-3-x-3-(3)-3-x-x-|-1-1-x-1-(1)-1-x-1-|
|-3-3-x-3-(3)-3-x-x-|-1-1-x-1-(1)-1-x-1-|
|-3-3-x-3-(3)-3-x-x-|-2-2-x-2-(2)-2-x-1-|
|-3-3-x-3-(3)-3-x-x-|-3-3-x-3-(3)-3-x-3-|
|-5-5-x-5-(5)-5-x-x-|-3-3-x-3-(3)-3-x-3-|
|-3-3-x-3-(3)-3-x-x-|-1-1-x-1-(1)-1-x-1-|


                      C
  E E E E +E  E E E   E E E E +E  E E E
|-1-1-x-1-(1)-1-x-1-|-0-0-x-0-(0)-0-x-x-|
|-1-1-x-1-(1)-1-x-1-|-1-1-x-1-(1)-1-x-x-|
|-1-1-x-1-(1)-1-x-1-|-0-0-x-0-(0)-0-x-x-|
|-3-3-x-3-(3)-3-x-3-|-2-2-x-2-(2)-2-x-x-|
|-3-3-x-3-(3)-3-x-3-|-3-3-x-3-(3)-3-x-x-|
|-1-1-x-1-(1)-1-x-1-|-------------------|


  D9              G7
  E E E E +E  E E E   E E E E +E  E E E
|-----------------3-|-3-3-x-3-(3)-3-x-0-||
|-5-5-x-5-(5)-5-x-3-|-3-3-x-3-(3)-3-x-1-||
|-5-5-x-5-(5)-5-x-4-|-4-4-x-4-(4)-4-x-0-||
|-4-4-x-4-(4)-4-x-3-|-3-3-x-3-(3)-3-x-2-||
|-5-5-x-5-(5)-5-x-5-|-5-5-x-5-(5)-5-x-3-||
|-----------------3-|-3-3-x-3-(3)-3-x---||


 Chorus
  $
  C                             Bb   F                             Bb
  E E E E E E E E   E E E E E E Q    E E E E E E E E   E E E E E E Q
|-0-0-x-0-0-0-x-0-|-0-0-x-0-0-0----|-1-1-x-1-1-1-x-1-|-1-1-x-1-1-1----|
|-1-1-x-1-1-1-x-1-|-1-1-x-1-1-1-3--|-1-1-x-1-1-1-x-1-|-1-1-x-1-1-1-3--|
|-0-0-x-0-0-0-x-0-|-0-0-x-0-0-0-3--|-2-2-x-2-2-2-x-2-|-2-2-x-2-2-2-3--|
|-2-2-x-2-2-2-x-2-|-2-2-x-2-2-2-3--|-3-3-x-3-3-3-x-3-|-3-3-x-3-3-3-3--|
|-3-3-x-3-3-3-x-3-|-3-3-x-3-3-3-1--|-3-3-x-3-3-3-x-3-|-3-3-x-3-3-3-1--|
|-----------------|----------------|-1-1-x-1-1-1-x-1-|-1-1-x-1-1-1----|


  C                             Bb   F             Fm
  E E E E E E E E   E E E E E E Q    E E E E E E E E   E E E E E E E E
|-0-0-x-0-0-0-x-0-|-0-0-x-0-0-0----|-1-1-x-1-1-1-x-1-|-1-1-x-1-1-1-x-x-|
|-1-1-x-1-1-1-x-1-|-1-1-x-1-1-1-3--|-1-1-x-1-1-1-x-1-|-1-1-x-1-1-1-x-x-|
|-0-0-x-0-0-0-x-0-|-0-0-x-0-0-0-3--|-2-2-x-2-2-2-x-1-|-1-1-x-1-1-1-x-x-|
|-2-2-x-2-2-2-x-2-|-2-2-x-2-2-2-3--|-3-3-x-3-3-3-x-3-|-3-3-x-3-3-3-x-x-|
|-3-3-x-3-3-3-x-3-|-3-3-x-3-3-3-1--|-3-3-x-3-3-3-x-3-|-3-3-x-3-3-3-x-x-|
|-----------------|----------------|-1-1-x-1-1-1-x-1-|-1-1-x-1-1-1-x-x-|


                          To Dbl. Coda
  C             Am                       Dm            G
  E E E E E E E E   +E  E E E E E E E    E E E E E E E E
|-0-0-x-0-0-0-x-0-|-(0)-0-x-0-0-0-x-x--|-1-1-x-1-1-1-x-3--|
|-1-1-x-1-1-1-x-1-|-(1)-1-x-1-1-1-x-x--|-3-3-x-3-3-3-x-0--|
|-0-0-x-0-0-0-x-2-|-(2)-2-x-2-2-2-x-x--|-2-2-x-2-2-2-x-0--|
|-2-2-x-2-2-2-x-2-|-(2)-2-x-2-2-2-x-x--|-0-0-x-0-0-0-x-0--|
|-3-3-x-3-3-3-x-0-|-(0)-0-x-0-0-0-x-x--|------------------|
|-----------------|--------------------|---------------3--|


                                         To Coda
                      C
  +E  E E E E E E E   W          +H     +Q.   E
|-(3)-3-x-3-3-3-x-x-|-0--------|-(0)----(0)---0---||
|-(0)-0-x-0-0-0-x-x-|-1--------|-(1)----(1)---1---||
|-(0)-0-x-0-0-0-x-x-|-0--------|-(0)----(0)---0---||
|-(0)-0-x-0-0-0-x-x-|-2--------|-(2)----(2)---2---||
|-------------------|-3--------|-(3)----(3)---3---||
|-(3)-3-x-3-3-3-x-x-|----------|------------------||


 3rd Verse
  C CmajC         Cmaj7
  E E E E +E  E E E   E E E E +E  E   E E
|-0-0-x-0-(0)-0-x-0-|-0-0-x-0-(0)-0---x-0-|
|-1-0-x-1-(1)-1-x-0-|-0-0-x-0-(0)-0---x-0-|
|-0-0-x-0-(0)-0-x-0-|-0-0-x-0-(0)-0---x-0-|
|-2-2-x-2-(2)-2-x-2-|-2-2-x-2-(2)-2---x-2-|
|-3-3-x-3-(3)-3-x-3-|-3-3-x-3-(3)-3---x-3-|
|-------------------|---------------------|
|
| Gtr II
| H        H          H        E.   S E E
|----------0--------|----------3----5---3-|
|----------1--------|---------------------|
|----------0--------|----------4--------3-|
|-------------------|---------------------|
|----------3--------|---------------------|
|-------------------|---------------------|


  Gm7                   F                 Fm
   E  E E E +E  E E E   E E E E +E  E E   E
|--3--3-x-3-(3)-3-x-x-|-1-1-x-1-(1)-1-x---1-|
|--3--3-x-3-(3)-3-x-x-|-1-1-x-1-(1)-1-x---1-|
|--3--3-x-3-(3)-3-x-x-|-2-2-x-2-(2)-2-x---1-|
|--3--3-x-3-(3)-3-x-x-|-3-3-x-3-(3)-3-x---3-|
|--5--5-x-5-(5)-5-x-x-|-3-3-x-3-(3)-3-x---3-|
|--3--3-x-3-(3)-3-x-x-|-1-1-x-1-(1)-1-x---1-|
|
| +H         H          E E E E  E  E E a E
|-(3)-----------------|---------------------|
|---------------------|---6-6-6--6--6-6-6s8-|
|-(3)-----------------|---------------------|
|---------------------|---7-7-7--7--7-7-----|
|---------------------|---------------------|
|---------------------|---------------------|


                         C
   E  E  E E +E  E E E   E E E E +E  E E E
|--1--1--x-1-(1)-1-x-1-|-0-0-x-0-(0)-0-x-x-|
|--1--1--x-1-(1)-1-x-1-|-1-1-x-1-(1)-1-x-x-|
|--1--1--x-1-(1)-1-x-1-|-0-0-x-0-(0)-0-x-x-|
|--3--3--x-3-(3)-3-x-3-|-2-2-x-2-(2)-2-x-x-|
|--3--3--x-3-(3)-3-x-3-|-3-3-x-3-(3)-3-x-x-|
|--1--1--x-1-(1)-1-x-1-|-------------------|
|
| +E  Q.     +H          E E E E  E  E E E
|----------------------|-------3--3--7---3-|
|-(8)-6------(6)-------|---5---------------|
|----------------------|-------5--5--7---5-|
|-----6------(6)-------|---5---------------|
|----------------------|-------------------|
|----------------------|-------------------|


  D9                G7                  C
   E  E E E +E  E E E   E E E E +E  E E E
|-------------------3-|-3-3-x-3-(3)-3-x-0-|
|--5--5-x-5-(5)-5-x-3-|-3-3-x-3-(3)-3-x-1-|
|--5--5-x-5-(5)-5-x-4-|-4-4-x-4-(4)-4-x-0-|
|--4--4-x-4-(4)-4-x-3-|-3-3-x-3-(3)-3-x-2-|
|--5--5-x-5-(5)-5-x-5-|-5-5-x-5-(5)-5-x-3-|
|-------------------3-|-3-3-x-3-(3)-3-x---|
|
| +E  E E E +H          H        E  Q   E
|-(3)-----------------|-----------------0-|
|-----5---3-(3)-------|-------------1---1-|
|-(5)-----------------|-----------------0-|
|-----5---4-(4)-------|-------------------|
|---------------------|-----------------3-|
|---------------------|-------------------|


      Cmaj7C         Cmaj7
   E  E  E E +E  E E E    E  E E E +E  E E E
|--0--0--x-0-(0)-0-x-0-|--0--0-x-0-(0)-0-x-0-|
|--1--0--x-1-(1)-1-x-0-|--0--0-x-0-(0)-0-x-0-|
|--0--0--x-0-(0)-0-x-0-|--0--0-x-0-(0)-0-x-0-|
|--2--2--x-2-(2)-2-x-2-|--2--2-x-2-(2)-2-x-2-|
|--3--3--x-3-(3)-3-x-3-|--3--3-x-3-(3)-3-x-3-|
|----------------------|---------------------|
|
| +E  Q.     +Q.     E   +E  E Q   +E  Q   E
|-(0)-0------(0)-----0-|-(0)-0---------------|
|-(1)-1------(1)-----0-|-(0)---0---(0)-8---8-|
|-(0)-0------(0)-----0-|-(0)-----------9-----|
|----------------------|-------------------8-|
|-(3)-3------(3)-----3-|-(3)-----------------|
|----------------------|---------------------|


  Gm7                    F               Fm
   E  E  E E +E  E E E   E E E E +E  E E E
|--3--3--x-3-(3)-3-x-x-|-1-1-x-1-(1)-1-x-1-|
|--3--3--x-3-(3)-3-x-x-|-1-1-x-1-(1)-1-x-1-|
|--3--3--x-3-(3)-3-x-x-|-2-2-x-2-(2)-2-x-1-|
|--3--3--x-3-(3)-3-x-x-|-3-3-x-3-(3)-3-x-3-|
|--5--5--x-5-(5)-5-x-x-|-3-3-x-3-(3)-3-x-3-|
|--3--3--x-3-(3)-3-x-x-|-1-1-x-1-(1)-1-x-1-|
|
| +E  Q.     +H          H       +E  E E E
|----------------------|-------------------|
|-(8)-8------(8)-------|-6-------(6)-6-6-6-|
|----------------------|-------------------|
|-(8)-8------(8)-------|-7-------(7)-7-7-7-|
|----------------------|-------------------|
|----------------------|-------------------|


                        C
  E E E E +E    E E E    E  E E E +E  E E E
|-1-1-x-1-(1)---1-x-1-|--0--0-x-0-(0)-0-x-x-|
|-1-1-x-1-(1)---1-x-1-|--1--1-x-1-(1)-1-x-x-|
|-1-1-x-1-(1)---1-x-1-|--0--0-x-0-(0)-0-x-x-|
|-3-3-x-3-(3)---3-x-3-|--2--2-x-2-(2)-2-x-x-|
|-3-3-x-3-(3)---3-x-3-|--3--3-x-3-(3)-3-x-x-|
|-1-1-x-1-(1)---1-x-1-|---------------------|
|
| E Q   E +E  a Q   E   +Q    Q    H
|---------------------|------------3--------|
|---6---6-(6)-6s8---5-|-(5)-----------------|
|---------------------|-------5---(5)-------|
|---6---6-(6)-------5-|-(5)-----------------|
|---------------------|---------------------|
|---------------------|---------------------|


                             D.S. al Coda
  D9              G7                   C
  E E E E +E  E E E   E E  E E +E  E E E
|-----------------3-|-3-3--x-3-(3)-3-x-0--||
|-5-5-x-5-(5)-5-x-3-|-3-3--x-3-(3)-3-x-1--||
|-5-5-x-5-(5)-5-x-4-|-4-4--x-4-(4)-4-x-0--||
|-4-4-x-4-(4)-4-x-3-|-3-3--x-3-(3)-3-x-2--||
|-5-5-x-5-(5)-5-x-5-|-5-5--x-5-(5)-5-x-3--||
|-----------------3-|-3-3--x-3-(3)-3-x----||
|
| Q   E E +E  Q   E   E Q.     +H
|-------------------|-5-3------(3)--------||
|-------------7-----|---------------------||
|-------7-(7)-----7-|-5-4------(4)--------||
|-------------------|---------------------||
|-------------------|---------------------||
|-------------------|---------------------||


 Saxophone Solo
  &
  C CmajC         Cmaj7
  E E E E +E  E E E   E E E E +E  E E E
|-0-0-x-0-(0)-0-x-0-|-0-0-x-0-(0)-0-x-0-|
|-1-0-x-1-(1)-1-x-0-|-0-0-x-0-(0)-0-x-0-|
|-0-0-x-0-(0)-0-x-0-|-0-0-x-0-(0)-0-x-0-|
|-2-2-x-2-(2)-2-x-2-|-2-2-x-2-(2)-2-x-2-|
|-3-3-x-3-(3)-3-x-3-|-3-3-x-3-(3)-3-x-3-|
|-------------------|-------------------|


  Gm7                 F               Fm
  E E E E +E  E E E   E E E E +E  E E E
|-3-3-x-3-(3)-3-x-x-|-1-1-x-1-(1)-1-x-1-|
|-3-3-x-3-(3)-3-x-x-|-1-1-x-1-(1)-1-x-1-|
|-3-3-x-3-(3)-3-x-x-|-2-2-x-2-(2)-2-x-1-|
|-3-3-x-3-(3)-3-x-x-|-3-3-x-3-(3)-3-x-3-|
|-5-5-x-5-(5)-5-x-x-|-3-3-x-3-(3)-3-x-3-|
|-3-3-x-3-(3)-3-x-x-|-1-1-x-1-(1)-1-x-1-|


                      C
  E E E E +E  E E E   E E E E +E  E E E
|-1-1-x-1-(1)-1-x-1-|-0-0-x-0-(0)-0-x-x-|
|-1-1-x-1-(1)-1-x-1-|-1-1-x-1-(1)-1-x-x-|
|-1-1-x-1-(1)-1-x-1-|-0-0-x-0-(0)-0-x-x-|
|-3-3-x-3-(3)-3-x-3-|-2-2-x-2-(2)-2-x-x-|
|-3-3-x-3-(3)-3-x-3-|-3-3-x-3-(3)-3-x-x-|
|-1-1-x-1-(1)-1-x-1-|-------------------|


                     D.S.S. al Dbl. Coda
  D9              G7                  C
  E E E E +E  E E E   E E E E +E  E E E
|-----------------3-|-3-3-x-3-(3)-3-x-0---||
|-5-5-x-5-(5)-5-x-3-|-3-3-x-3-(3)-3-x-1---||
|-5-5-x-5-(5)-5-x-4-|-4-4-x-4-(4)-4-x-0---||
|-4-4-x-4-(4)-4-x-3-|-3-3-x-3-(3)-3-x-2---||
|-5-5-x-5-(5)-5-x-5-|-5-5-x-5-(5)-5-x-3---||
|-----------------3-|-3-3-x-3-(3)-3-x-----||


                                        Out-Chorus
  &&
  Dm            G                        C                             Bb
  E E E E E E E E   +E  E E E E E E E    E E E E E E E E   E E E E E E Q
|-1-1-x-1-1-1-x-3-|-(3)-3-x-3-3-3-x-x-||-0-0-x-0-0-0-x-0-|-0-0-x-0-0-0----|
|-3-3-x-3-3-3-x-0-|-(0)-0-x-0-0-0-x-x-||-1-1-x-1-1-1-x-1-|-1-1-x-1-1-1-3--|
|-2-2-x-2-2-2-x-0-|-(0)-0-x-0-0-0-x-x-||-0-0-x-0-0-0-x-0-|-0-0-x-0-0-0-3--|
|-0-0-x-0-0-0-x-0-|-(0)-0-x-0-0-0-x-x-||-2-2-x-2-2-2-x-2-|-2-2-x-2-2-2-3--|
|-----------------|-------------------||-3-3-x-3-3-3-x-3-|-3-3-x-3-3-3-1--|
|---------------3-|-(3)-3-x-3-3-3-x-x-||-----------------|----------------|


  F                             Bb   C                             Bb
  E E E E E E E E   E E E E E E Q    E E E E E E E E   E E E E E E Q
|-1-1-x-1-1-1-x-1-|-1-1-x-1-1-1----|-0-0-x-0-0-0-x-0-|-0-0-x-0-0-0----*|
|-1-1-x-1-1-1-x-1-|-1-1-x-1-1-1-3--|-1-1-x-1-1-1-x-1-|-1-1-x-1-1-1-3--*|
|-2-2-x-2-2-2-x-2-|-2-2-x-2-2-2-3--|-0-0-x-0-0-0-x-0-|-0-0-x-0-0-0-3--*|
|-3-3-x-3-3-3-x-3-|-3-3-x-3-3-3-3--|-2-2-x-2-2-2-x-2-|-2-2-x-2-2-2-3--*|
|-3-3-x-3-3-3-x-3-|-3-3-x-3-3-3-1--|-3-3-x-3-3-3-x-3-|-3-3-x-3-3-3-1--*|
|-1-1-x-1-1-1-x-1-|-1-1-x-1-1-1----|-----------------|----------------*|


Duration Legend
---------------
W - whole; H - half; Q - quarter; E - 8th; S - 16th; T - 32nd; X - 64th; a - acciaccatura
+ - note tied to previous; . - note dotted; .. - note double dotted
Uncapitalized letters represent notes that are staccato (1/2 duration)
Irregular groupings are notated above the duration line
Duration letters will always appear directly above the note/fret number it represents the
duration for.  Duration letters with no fret number below them represent rests.  Multi-
bar rests are notated in the form Wxn, where n is the number of bars to rest for.  Low
melody durations appear below the staff

Tablature Legend
----------------
 h   - hammer-on
 p   - pull-off
 b   - bend
 pb  - pre-bend
 r   - bend release (if no number after the r, then release immediately)
 /\  - slide into or out of (from/to "nowhere")
 s   - legato slide
 S   - shift slide
  - natural harmonic
[n]  - artificial harmonic
n(n) - tapped harmonic
 ~   - vibrato
 tr  - trill
 T   - tap
 TP  - trem. picking
 PM  - palm muting
\n/  - tremolo bar dip; n = amount to dip
 \n  - tremolo bar down
 n/  - tremolo bar up
/n\  - tremolo bar inverted dip
 =   - hold bend; also acts as connecting device for hammers/pulls
 <>  - volume swell (louder/softer)
 x   - on rhythm slash represents muted slash
 o   - on rhythm slash represents single note slash

Misc Legend
-----------
 |  - bar
||  - double bar
||o - repeat start
o|| - repeat end
*|  - double bar (ending)
 :  - bar (freetime)
 $  - Segno
 &  - Coda
Tempo markers -  = BPM(8/16=s8/s16), where s8 = swing 8ths, s16 = swing 16ths
Добавлено: 04.07.2015
Другие материалы по этой песне:
  • Аккорды и текст

Страница создана 04.07.2015
http://primanota.ru/beach-boys/koko-chords.htm
Привет, Гость.
Предлагаем пройти революционный курс по гитаре.
Подарок от PrimaNota.Ru, забирай!