PrimaNota.ru - самый крупный в мире бесплатный архив песенных текстов, аккордов, табулатур и нот


Beach Boys - Heroes - бас-таба, видео

Регистрация Запомнить меня
Войти через:  Facebook Google Twitter Vk Yandex Mail.ru

Beach Boys - Heroes - бас-таба, видео

Печатать
Просмотров: 105
beach boys_heroes

TablEdited by Jan Bjorklund    jani_bjorklund@yahoo.se>
You are welcome to request for tabs!
Fingering and positions as suggested by TablEdit, please use common sense.


TablEdited by Jan Bjorklund
Tuning : E A D G 	Time Signature: 4/4

  |       |       |       |        |       |       |       |
|--------------------------------|--------------------------------|
|--------------------------------|--------------------------------|
|4---------------4---------------|4---4-----------4---------------|
|------------4---------------4---|------------4---------------4---|

  |       |       |       |        |       |       |       |
|--------------------------------|--------------------------------|
|--------------------------------|--------------------------------|
|4---------------4---------------|4---4-----------4-----------1---|
|------------4---------------4---|------------4-------------------|

  |       |       |       |        |       |       |       |
|--------------------------------|--------------------------------|
|1---------------1---------------|1---1-----------1---------------|
|------------1---------------1---|------------1---------------1---|
|--------------------------------|--------------------------------|

  |       |       |       |        |       |       |       |
|--------------------------------|--------------------------------|
|------------1---------------1---|------------1---------------1---|
|--------------------------------|--------------------------------|
|4---------------4---------------|4---4-----------4---------------|

  |       |       |       |        |       |       |       |
|--------------------------------|--------------------------------|
|------------1---------------1---|------------1-------------------|
|--------------------------------|--------------------------------|
|4---------------4---------------|4---4-----------4-----------4---|



  |       |       |       |        |       |       |       |
|--------------------------------|--------------------------------|
|--------------------------------|--------------------------------|
|--------------------------------|4---------------4---------------|
|--------------------------------|------------4---------------4---|

  |       |       |       |        |       |       |       |
|--------------------------------|--------------------------------|
|--------------------------------|--------------------------------|
|4---4-----------4---------------|--------------------------------|
|------------4---------------4---|--------------------------------|





Created with TablEdit http://www.tabledit.com/

     
Добавлено: 03.06.2013
Другие материалы по этой песне:
  • Аккорды и текст

Страница создана 03.06.2013
http://primanota.ru/beach-boys/heroes-chords.htm
Привет, Гость.
Предлагаем пройти революционный курс по гитаре.
Подарок от PrimaNota.Ru, забирай!