PrimaNota.ru - самый крупный в мире бесплатный архив песенных текстов, аккордов, табулатур и нот


Beach Boys - Help Me Ronda - бас-таба, видео

Регистрация Запомнить меня
Войти через:  Facebook Google Twitter Vk Yandex Mail.ru

Beach Boys - Help Me Ronda - бас-таба, видео

Печатать
Просмотров: 90
beach boys_help me ronda

TablEdited by Jan Bjorklund    jani_bjorklund@yahoo.se>
You are welcome to request for tabs!
Fingering and positions as suggested by TablEdit, please use common sense.


TablEdited by Jan Bjorklund
Tuning : E A D G 	Time Signature: 4/4

  |               |               |               |
|------------------------3-----1---------------------------------|
|----------------3-------------------------3---1-----------3-----|
|4---------------------------------------------------------------|
|----------------------------------------------------------------|

  |               |               |               |
|------------------------3-----1---------------------------------|
|----------------3-------------------------3---1-----------3-----|
|4---------------------------------------------------------------|
|----------------------------------------------------------------|

  |               |               |               |
|------------------------3-----1---------------------------------|
|----------------3-------------------------3---1-----------3-----|
|4---------------------------------------------------------------|
|----------------------------------------------------------------|

  |               |               |               |
|--------------------------3-----1-------------------------------|
|----------------3-------------------------3---1-----------3-----|
|4---------------------------------------------------------------|
|----------------------------------------------------------------|

  |               |               |               |
|--------------------------3---1---------------------------------|
|--------------3---------------------------3---1-----------3-----|
|4---------------------------------------------------------------|
|----------------------------------------------------------------|

  |               |               |               |
|----------------------------------------------------------------|
|------------------------3-----1---------------------------1-----|
|----------------3-----------------------------3---------------4-|
|4---------------------------------------------------------------|

  |               |               |               |
|--------------------------3---1---------------------------------|
|----------------3-------------------------3---1---------3-------|
|----------------------------------------------------------------|
|----------------------------------------------------------------|

  |               |               |               |
|--------------------------3---1---------------------------------|
|----------------3-------------------------3-----1---------3-----|
|4---------------------------------------------------------------|
|----------------------------------------------------------------|

  |               |               |               |
|--------------------------3---1---------------------------------|
|----------------3-------------------------3-----1---------3-----|
|4---------------------------------------------------------------|
|----------------------------------------------------------------|

  |               |               |               |
|----------------------------------------------------------------|
|--------------------------3-----1-------------------------------|
|----------------3-----------------------3-----1-----------3-----|
|4---------------------------------------------------------------|

  |               |               |               |
|--------------------------3-----1-------------------------------|
|----------------3-----------------------3-----1-----------3-----|
|4---------------------------------------------------------------|
|----------------------------------------------------------------|

  |               |               |               |
|--------------------------3---1---------------------------------|
|----------------3-----------------------3-----1-----------3-----|
|4-------------------------------------------------------------1-|
|----------------------------------------------------------------|

  |               |               |               |
|----------------------------------------------------------------|
|----------------------------------------------------------------|
|--------------1-----------------1-------------1-----------------|
|----------------------------------------------------------------|

  |               |               |               |
|----------------------------------------------------------------|
|----------------------------------------------------------------|
|1-------------1---------------1---------------------------------|
|----------------------------------------------4---------------2-|

  |               |               |               |
|----------------------------------------------------------------|
|----------------------------------------------------------------|
|----------------------------------------------------------------|
|--------------2---------------2---------------2-----------------|

  |               |               |               |
|----------------------------------------------------------------|
|1---------------1-------------3---------------1-----------------|
|--------------------------------------------------------------4-|
|----------------------------------------------------------------|

  |               |               |               |
|--------------------------3-----1-------------------------------|
|----------------3-------------------------3---1-----------3---1-|
|----------------------------------------------------------------|
|----------------------------------------------------------------|

  |               |               |               |
|----------------------------------------------------------1-----|
|----------------1-----------------------------1-----------------|
|--------------------------------------------------------------4-|
|----------------------------------------------------------------|

  |               |               |               |
|----------------------------------------------------------------|
|----------------------------------------------------------------|
|----------------4---------------3---------------4---------------|
|----------------------------------------------------------------|

  |               |               |               |
|----------------------------------------------------------------|
|1---------------------------------------------------------------|
|----------------4-------------3-----------------4---------------|
|--------------------------------------------------------------4-|

  |               |               |               |
|----------------------------------------------------------------|
|--------------------------------1-------------------------1-----|
|--------------3---------------------------------3---------------|
|----------------------------------------------------------------|

  |               |               |               |
|----------------------------------------------------------------|
|------------------------------1---------------------------1-----|
|--------------3---------------------------------3---------------|
|4---------------------------------------------------------------|

  |               |               |               |
|------------------------------1-------------------------1-------|
|----------------3-------------------------------3---------------|
|4-------------------------------------------------------------4-|
|----------------------------------------------------------------|

  |               |               |               |
|--------------------------------------------------------1-------|
|----------------3-------------------------------3---------------|
|----------------------------------------------------------------|
|----------------------------------------------------------------|

  |               |               |               |
|----------------------------------------------------------------|
|--------------------------------1-------------------------1-----|
|----------------3-----------------------------3-----------------|
|4---------------------------------------------------------------|

  |               |               |               |
|----------------------------------------------------------------|
|------------------------------1---------------------------1-----|
|----------------3-----------------------------3---------------4-|
|4---------------------------------------------------------------|

  |               |               |               |
|------------------------------1-------------------------1-------|
|--------------3-------------------------------3-----------------|
|--------------------------------------------------------------4-|
|----------------------------------------------------------------|

  |               |               |               |
|------------------------------1---------------------------1-----|
|--------------3---------------------------------3---------------|
|----------------------------------------------------------------|
|----------------------------------------------------------------|

  |               |               |               |
|----------------3-------------6-------------------------6-------|
|4-------------------------------------------------------------4-|
|----------------------------------------------------------------|
|----------------------------------------------------------------|

  |               |               |               |
|--------------3---------------6---------------3-----------6-----|
|----------------------------------------------------------------|
|----------------------------------------------------------------|
|----------------------------------------------------------------|

  |               |               |               |
|3-------------3---------------------------------3---------------|
|----------------------------------------------------------------|
|----------------------------------------------------------------|
|----------------------------------------------------------------|

  |               |               |               |
|----------------------------------------------------------------|
|--------------------------------------------------------------1-|
|----------------------------------------------------------------|
|4---------------4---------------4-------------4-----------------|

  |               |               |               |
|--------------------------------------------------------------1-|
|----------------1---------------1-------------1-----------------|
|----------------------------------------------------------------|
|----------------------------------------------------------------|

  |               |               |               |
|----------------------------------------------------------------|
|----------------------------------------------------------------|
|----------------------------------------------------------------|
|----------------------------------------------------------------|

  |               |               |               |
|------------------------3-----1---------------------------------|
|----------------3-------------------------3---1-----------3-----|
|4---------------------------------------------------------------|
|----------------------------------------------------------------|

  |               |               |               |
|--------------------------3-----1-------------------------------|
|----------------3-------------------------3---1-----------3-----|
|4---------------------------------------------------------------|
|----------------------------------------------------------------|

  |               |               |               |
|------------------------3-----1---------------------------------|
|----------------3-------------------------3---1-----------3-----|
|4---------------------------------------------------------------|
|--------------------------------------------------------------2-|

  |               |               |               |
|----------------------------------------------------------------|
|--------------------------1-------------------------------------|
|----------------1---------------4---------1---------------1---4-|
|----------------------------------------------4-----------------|

  |               |               |               |
|--------------------------3-----1-------------------------------|
|--------------3---------------------------3-----1---------3-----|
|----------------------------------------------------------------|
|----------------------------------------------------------------|

  |               |               |               |
|--------------------------3-----1-------------------------------|
|----------------3-----------------------3-----1-----------3-----|
|4---------------------------------------------------------------|
|----------------------------------------------------------------|

  |               |               |               |
|--------------------------3---1---------------------------------|
|----------------3-------------------------3-----1---------3-----|
|4---------------------------------------------------------------|
|----------------------------------------------------------------|

  |               |               |               |
|----------------------------------------------------------------|
|--------------------------1-------------------------------------|
|----------------1---------------4---------1---------------1-----|
|2-----------------------------------------------4---------------|

  |               |               |               |
|--------------------------3-----1-------------------------------|
|----------------3-----------------------3-------1---------3-----|
|4---------------------------------------------------------------|
|----------------------------------------------------------------|

  |               |               |               |
|--------------------------3---1---------------------------------|
|--------------3---------------------------3---1-----------3-----|
|4---------------------------------------------------------------|
|----------------------------------------------------------------|

  |               |               |               |
|----------------------------------------------------------------|
|----------------------------------------------------------------|
|1---------------1---------------1---------------1---------------|
|----------------------------------------------------------------|

  |               |               |               |
|----------------------------------------------------------------|
|----------------------------------------------------------------|
|1---------------1---------------1-------------------------------|
|------------------------------------------------4-------------2-|

  |               |               |               |
|----------------------------------------------------------------|
|--------------------------------------------------------------1-|
|----------------------------------------------------------------|
|--------------2-----------------2---------------2---------------|

  |               |               |               |
|----------------------------------------------------------------|
|--------------1-----------------3---------------1---------------|
|--------------------------------------------------------------4-|
|----------------------------------------------------------------|

  |               |               |               |
|--------------------------3---1---------------------------------|
|----------------3-----------------------3-----1-----------3-----|
|----------------------------------------------------------------|
|----------------------------------------------------------------|

  |               |               |               |
|----------------------------------------------------------------|
|1-------------1---------------3---------------1-----------3-----|
|----------------------------------------------------------------|
|----------------------------------------------------------------|

  |               |               |               |
|----------------------------------------------------------------|
|--------------------------------------------------------------1-|
|4-------------4---------------3---------------4-----------------|
|----------------------------------------------------------------|

  |               |               |               |
|----------------------------------------------------------------|
|----------------------------------------------------------------|
|--------------4---------------3---------------4-----------------|
|--------------------------------------------------------------4-|

  |               |               |               |
|----------------------------------------------------------------|
|------------------------------1---------------------------1-----|
|----------------3-----------------------------3-----------------|
|----------------------------------------------------------------|

  |               |               |               |
|----------------------------------------------------------------|
|------------------------------1---------------------------1-----|
|----------------3-----------------------------3---------------4-|
|4---------------------------------------------------------------|

  |               |               |               |
|------------------------------1-------------------------1-------|
|--------------3-------------------------------3-----------------|
|--------------------------------------------------------------4-|
|----------------------------------------------------------------|

  |               |               |               |
|------------------------------1---------------------------1-----|
|----------------3-----------------------------3-----------------|
|----------------------------------------------------------------|
|----------------------------------------------------------------|

  |               |               |               |
|----------------------------------------------------------------|
|--------------------------------1-------------------------1-----|
|----------------3-------------------------------3---------------|
|4---------------------------------------------------------------|

  |               |               |               |
|----------------------------------------------------------------|
|------------------------------1---------------------------1-----|
|----------------3-------------------------------3---------------|
|4---------------------------------------------------------------|

  |               |               |               |
|--------------------------------1-------------------------1-----|
|----------------3-----------------------------3-----------------|
|4-------------------------------------------------------------4-|
|----------------------------------------------------------------|

  |               |               |               |
|------------------------------1---------------------------1-----|
|----------------3-------------------------------3-------------4-|
|----------------------------------------------------------------|
|----------------------------------------------------------------|

  |               |               |               |
|----------------------------------------------------------------|
|----------------4-------------4---------------4---------------4-|
|----------------------------------------------------------------|
|----------------------------------------------------------------|

  |               |               |               |
|----------------------------------------------------------------|
|--------------4---------------4---------------4-----------------|
|----------------------------------------------------------------|
|----------------------------------------------------------------|

  |               |               |               |
|----------------------------------------------------------------|
|3---------------3-----------------------------------------------|
|------------------------------1---------------1-----------------|
|----------------------------------------------------------------|

  |               |               |               |
|----------------------------------------------------------------|
|----------------------------------------------------------------|
|----------------------------------------------------------------|
|4-------------4---------------4---------------4-----------------|

  |               |               |               |
|----------------------------------------------------------------|
|1---------------1---------------1---------------1---------------|
|----------------------------------------------------------------|
|----------------------------------------------------------------|

  |               |               |               |
|1---------------------------------------------------------------|
|----------------------------------------------------------------|
|----------------------------------------------------------------|
|----------------------------------------------------------------|

  |               |               |               |
|------------------------3-----1---------------------------------|
|----------------3-------------------------3---1-----------3-----|
|4---------------------------------------------------------------|
|----------------------------------------------------------------|

  |               |               |               |
|------------------------3-------1-------------------------------|
|----------------3-------------------------3-----1---------3-----|
|4---------------------------------------------------------------|
|----------------------------------------------------------------|

  |               |               |               |
|--------------------------3---1---------------------------------|
|------------------------------------------3-----1---------3-----|
|4---------------4-----------------------------------------------|
|----------------------------------------------------------------|

  |               |               |               |
|--------------------------3---1---------------------------------|
|----------------------------------------3-----1-----------3-----|
|4---------------4---------------------------------------------4-|
|----------------------------------------------------------------|

  |               |               |               |
|--------------------------3-----1-------------------------------|
|------------------------------------------3---1-----------3-----|
|----------------4---------------------------------------------4-|
|----------------------------------------------------------------|

  |               |               |               |
|--------------------------3---1---------------------------------|
|----------------------------------------3-----1---------3-----4-|
|--------------4-------------------------------------------------|
|----------------------------------------------------------------|

  |               |               |               |
|----------------------------------------------------------------|
|----------------4---------4-----4---------------4---------4---4-|
|----------------------------------------------------------------|
|----------------------------------------------------------------|

  |               |               |               |
|----------------------------------------------------------------|
|----------------4---------4---4---------------4-----------4-----|
|--------------------------------------------------------------4-|
|----------------------------------------------------------------|

  |               |               |               |
|----------------------------------------------------------------|
|----------------------------------------------------------------|
|--------------4---------------4-----------------4-------------4-|
|----------------------------------------------------------------|

  |               |               |               |
|----------------------------------------------------------------|
|----------------------------------------------------------------|
|--------------4---------------4-----------------4---------------|
|----------------------------------------------------------------|

  |               |               |               |
|----------------------------------------------------------------|
|1-------------1---------------1-----------------1---------------|
|----------------------------------------------------------------|
|----------------------------------------------------------------|

  |               |               |               |
|----------------------------------------------------------------|
|4---------------4---------------4-------------4-----------------|
|--------------------------------------------------------------4-|
|----------------------------------------------------------------|

  |               |               |               |
|----------------------------------------------------------------|
|----------------------------------------------------------------|
|--------------4-----------------4---------------4---------------|
|----------------------------------------------------------------|

  |               |               |               |
|----------------------------------------------------------------|
|----------------------------------------------------------------|
|4---------------4-------------4-----------------4---------------|
|----------------------------------------------------------------|

  |               |               |               |
|----------------------------------------------------------------|
|----------------------------------------------------------------|
|----------------------------------------------------------------|
|4---------------4---------------4-------------4---------------4-|

  |               |               |               |
|----------------------------------------------------------------|
|----------------------------------------------------------------|
|--------------------------------------------------------------4-|
|--------------4---------------4---------------4-----------------|

  |               |               |               |
|----------------------------------------------------------------|
|----------------------------------------------------------------|
|----------------4---------------4-------------4-----------------|
|----------------------------------------------------------------|

  |               |               |               |
|----------------------------------------------------------------|
|----------------------------------------------------------------|
|4---------------4---------------4---------------4---------------|
|--------------------------------------------------------------4-|

  |               |               |               |
|----------------------------------------------------------------|
|----------------------------------------------------------------|
|----------------------------------------------------------------|
|----------------4-------------4---------------4-----------------|

  |               |               |               |
|----------------------------------------------------------------|
|----------------------------------------------------------------|
|----------------------------------------------------------------|
|4---------------4---------------4-------------4-----------------|

  |               |               |               |
|----------------------------------------------------------------|
|----------------------------------------------------------------|
|4---------------4---------------4---------------4-------------4-|
|----------------------------------------------------------------|

  |               |               |               |
|----------------------------------------------------------------|
|--------------------------------------------------------------4-|
|--------------4-----------------4-------------4-----------------|
|----------------------------------------------------------------|

  |               |               |               |
|----------------------------------------------------------------|
|--------------4---------------4---------------4---------------4-|
|----------------------------------------------------------------|
|----------------------------------------------------------------|

  |               |               |               |
|----------------------------------------------------------------|
|--------------4-----------------4---------------4---------------|
|--------------------------------------------------------------1-|
|----------------------------------------------------------------|

  |               |               |               |
|----------------------------------------------------------------|
|----------------------------------------------------------------|
|----------------1---------------1-------------1-----------------|
|----------------------------------------------------------------|

  |               |               |               |
|----------------------------------------------------------------|
|--------------------------------------------------------------1-|
|----------------------------------------------------------------|
|4---------------4---------------4---------------4---------------|

  |               |               |               |
|----------------------------------------------------------------|
|----------------1---------------1---------------1---------------|
|----------------------------------------------------------------|
|----------------------------------------------------------------|

  |               |               |               |
|1---------------------------------------------------------------|
|----------------------------------------------------------------|
|----------------------------------------------------------------|
|----------------------------------------------------------------|

  |               |               |               |
|------------------------3-----1---------------------------------|
|--------------3-------------------------3-----1---------3-------|
|4-------------------------------------------------------------4-|
|----------------------------------------------------------------|

  |               |               |               |
|------------------------3-----1---------------------------------|
|----------------3-----------------------3-----1-----------3-----|
|----------------------------------------------------------------|
|----------------------------------------------------------------|

  |               |               |               |
|------------------------3-----1---------------------------------|
|----------------3-----------------------3-----1-----------3-----|
|4---------------------------------------------------------------|
|----------------------------------------------------------------|

  |               |               |               |
|------------------------3-----1---------------------------------|
|----------------3-------------------------3---1-----------3-----|
|4---------------------------------------------------------------|
|----------------------------------------------------------------|

  |               |               |               |
|------------------------3-----1---------------------------------|
|----------------3-----------------------3-----1---------3-------|
|4---------------------------------------------------------------|
|----------------------------------------------------------------|

  |               |               |               |
|--------------------------3-----1-------------------------------|
|----------------3-----------------------3-------1-------3-------|
|4-------------------------------------------------------------4-|
|----------------------------------------------------------------|

  |               |               |               |
|------------------------3-----1---------------------------------|
|----------------3-----------------------3-----1-----------3-----|
|--------------------------------------------------------------4-|
|----------------------------------------------------------------|




Created with TablEdit http://www.tabledit.com/

     
Добавлено: 22.07.2013
Другие материалы по этой песне:
  • Аккорды и текст

Страница создана 22.07.2013
http://primanota.ru/beach-boys/help-me-ronda-chords.htm
Привет, Гость.
Предлагаем пройти революционный курс по гитаре.
Подарок от PrimaNota.Ru, забирай!