PrimaNota.ru - самый крупный в мире бесплатный архив песенных текстов, аккордов, табулатур и нот


Beach Boys - Anna Lee Healer - текст песни, бас-таба, видео

Регистрация Запомнить меня
Войти через:  Facebook Google Twitter Vk Yandex Mail.ru

Beach Boys - Anna Lee Healer - текст песни, бас-таба, видео

Печатать
Просмотров: 45
Уроки эстрадного вокала в Санкт-Петербурге
Авторы музыки: Brian Wilson, Mike Love

[Intro]
G|---------|---------|-----------------|
D|---------|---------|-----------------|
A|---------|-2-------|-----------------|
E|-5-------|---------|-0---------------|

[Chorus]
G|------------|--------------|------------|--------------|
D|------------|--------------|------------|--------------|
A|------------|-2-2-2-4--4--4|------------|-2-2-2-4--4--4|
E|-4---4-5---5|--------------|-4---4-5---5|--------------|

G|-------------|----------|----------|-----------|
D|-------------|----------|----------|-----------|
A|-------------|-2--2-----|----------|-----------|
E|-2---2-2-2--2|----------|-0------5-|-0--0-0----|


[Verse 1]
* 00:21 ~ 00:41 - No Bass Guitar


(00:42 ~ )
G|-----------|-----------|-----------------|
D|-----------|-----------|-----------------|
A|-----------|-2---2---2-|-----------------|
E|-5---5---5-|-----------|-0---------------|

[Chorus]
G|------------|--------------|------------|--------------|
D|------------|--------------|------------|--------------|
A|------------|-2-2-2-4--4--4|------------|-2-2-2-4--4--4|
E|-4---4-5---5|--------------|-4---4-5---5|--------------|

G|-------------|----------|----------|-----------|
D|-------------|----------|----------|-----------|
A|-------------|-2--2-----|----------|-----------|
E|-2---2-2-2--2|----------|-0------5-|-0--0-0----|

[Verse 2]
G|-------------------------|-------------------------| (x3)
D|-------------------------|-------------------------|
A|-----------2--2--2-------|-----------2--2--2-------|
E|-0--0--5-----------5-5-5-|-0--0--5-----------5-5-5-|

G|-----------|-----------|-----------------|
D|-----------|-----------|-----------------|
A|-----------|-2---2---2-|-----------------|
E|-5---5---5-|-----------|-0---------------|

[Chorus/Outro]
G|------------|--------------|------------|--------------|
D|------------|--------------|------------|--------------|
A|------------|-2-2-2-4--4--4|------------|-2-2-2-4--4--4|
E|-4---4-5---5|--------------|-4---4-5---5|--------------|

G|-------------|----------|----------|-----------|
D|-------------|----------|----------|-----------|
A|-------------|-2--2-----|----------|-----------|
E|-2---2-2-2--2|----------|-0------5-|-0--0-0----|
Добавлено: 11.08.2017
Другие материалы по этой песне:
  • Аккорды и текст

Страница создана 02.05.2012
http://primanota.ru/beach-boys/anna-lee-healer-chords.htm
Привет, Гость.
Предлагаем пройти революционный курс по гитаре.
Подарок от PrimaNota.Ru, забирай!