PrimaNota.ru - самый крупный в мире бесплатный архив песенных текстов, аккордов, табулатур и нот


Be Your Own Pet - Super Soaked - таба, видео

Регистрация Запомнить меня
Войти через:  Facebook Google Twitter Vk Yandex Mail.ru

Be Your Own Pet - Super Soaked - таба, видео

Печатать
Просмотров: 155
Уроки эстрадного вокала в Санкт-Петербурге
Super Soaked
be your own PET
Get Awkward [2008]

this is an awesome song by an awesomer band

Intro [play twice]

e--------------------------------------------------------------|
B--------------------------------------------------------------|
G--------------------------------------------------------------|
D--14p12--14p12--14p12--14p12--14p12--14p12--14p12--14p12------|
A--------------------------------------------------------------|
E--------------------------------------------------------------|


e--------------------------------------------------------------|
B--------------------------------------------------------------|
G--------------------------------------------------------------|
D--14p12--14p12--14p12--14p12--14--12------12------------------|
A--------------------------------------14------14--12--14--12--|
E--------------------------------------------------------------|


[play this bit twice]

e--------------------------12/---------------------------15/---|
B------------------12-15-------------------------12-15---------|
G----------12-14-------------------------12-14-----------------|
D--14-14-------------------------14-14-------------------------|
A--------------------------------------------------------------|
E--------------------------------------------------------------|

I just want to run around!
I just want to party down!
I just want to run around!
I just want to party down!


[play this 4 times]

e--------------------------------------------------------------|
B--------------------------------------------------------------|
G--------------------------------------------------------------|
D--------------------------------------------------------------|
A--------------------------------------------------------------|
E--0--0--0---7--6--5--4--3---0--0--0---7--6--5--4--3-----------|

Drug rugs and beer, yeah its all I know
I dont wanna grow up and have to let go
I feel the pressure to change my ways
All I see are more dark days


[then this bit]

e--------------------------------------------------------------|
B--------------------------------------------------------------|
G--12-----------7-----------9----------------------------------|
D--12-----------7-----------9----------------------------------|
A--10-----------5-----------7----------------------------------|
E--------------------------------------------------------------|

e--------------------------------------------------------------|
B--------------------------------------------------------------|
G--12-----------7-----------9----------------------------------|
D--12-----------7-----------9----------------------------------|
A--10-----------5-----------7----------------------------------|
E-------------------------------------12///0-------------------|

e--------------------------------------------------------------|
B--------------------------------------------------------------|
G--12-----------7-----------9----------------------------------|
D--12-----------7-----------9----------------------------------|
A--10-----------5-----------7----------------------------------|
E--------------------------------------------------------------|

e--------------------------------------------------------------|
B--------------------------------------------------------------|
G--12-----------7-----------9----------------------------------|
D--12-----------7-----------9----------------------------------|
A--10-----------5-----------7----------------------------------|
E--------------------------------------------------------------|

All these teenage ways on my brain
Get away, a feeling I cant explain
I dont want this thing to ever stop
Just shut up, and hand over that pop

[then this bit twice]

e--------------------------------------------------------------|
B--------------------------------------------------------------|
G--------------------------------------------------------------|
D--14p12--14p12--14p12--14p12--14p12--14p12--14p12--14p12------|
A--------------------------------------------------------------|
E--------------------------------------------------------------|


e--------------------------------------------------------------|
B--------------------------------------------------------------|
G--------------------------------------------------------------|
D--14p12--14p12--14p12--14p12--14--12------12------------------|
A--------------------------------------14------14--12--14--12--|
E--------------------------------------------------------------|

Just 19 when I lost all my dignity
Todays my birthday and now that im 20
I dont wanna have responsibility
I dont wanna be a part of society


[play this 4 times]

e--------------------------------------------------------------|
B--------------------------------------------------------------|
G--------------------------------------------------------------|
D--------------------------------------------------------------|
A--------------------------------------------------------------|
E--0--0--0---7--6--5--4--3---0--0--0---7--6--5--4--3-----------|

i wanna be where the boys are too
i wanna do the things i wanna do
i wont do what you tell me to
i dont wanna have to listen to you

e--------------------------------------------------------------|
B--------------------------------------------------------------|
G--12-----------7-----------9----------------------------------|
D--12-----------7-----------9----------------------------------|
A--10-----------5-----------7----------------------------------|
E--------------------------------------------------------------|

e--------------------------------------------------------------|
B--------------------------------------------------------------|
G--12-----------7-----------9----------------------------------|
D--12-----------7-----------9----------------------------------|
A--10-----------5-----------7----------------------------------|
E-------------------------------------12///0-------------------|

e--------------------------------------------------------------|
B--------------------------------------------------------------|
G--12-----------7-----------9----------------------------------|
D--12-----------7-----------9----------------------------------|
A--10-----------5-----------7----------------------------------|
E--------------------------------------------------------------|

e--------------------------------------------------------------|
B--------------------------------------------------------------|
G--12-----------7-----------9----------------------------------|
D--12-----------7-----------9----------------------------------|
A--10-----------5-----------7----------------------------------|
E--------------------------------------------------------------|

All these teenage ways on my brain
Get away, a feeling I cant explain
I dont want this thing to ever stop
Just shut up, and hand over that pop


[this bit 4 times]
e--------------------------------------------------------------|
B--------------------------------------------------------------|
G--9-9-9-9-9-9--7-----------------7----------------------------|
D--9-9-9-9-9-9--7----7-7-7-7-7-7--7----------------------------|
A--7-7-7-7-7-7--5----7-7-7-7-7-7--5----------------------------|
E--------------------5-5-5-5-5-5-------------------------------|

Whats the point of doing something
Every night gotta feel the pain
Some people say im disgusting
I dont care, I just think theyre lame


e--------------------------------------------------------------|
B--------------------------------------------------------------|
G--12-----------7-----------9----------------------------------|
D--12-----------7-----------9----------------------------------|
A--10-----------5-----------7----------------------------------|
E--------------------------------------------------------------|

Kill the rainbow, FEEL THE ROCKS!


[drum fill]

[it comes back with this bit twice]

e--------------------------------------------------------------|
B--------------------------------------------------------------|
G--------------------------------------------------------------|
D--14p12--14p12--14p12--14p12--14p12--14p12--14p12--14p12------|
A--------------------------------------------------------------|
E--------------------------------------------------------------|


e--------------------------------------------------------------|
B--------------------------------------------------------------|
G--------------------------------------------------------------|
D--14p12--14p12--14p12--14p12--14--12------12------------------|
A--------------------------------------14------14--12--14--12--|
E--------------------------------------------------------------|

Just 19 when I lost all my dignity
Todays my birthday and now that im 20
I dont wanna have responsibility
I dont wanna be a part of society

e--------------------------12/---------------------------15/---|
B------------------12-15-------------------------12-15---------|
G----------12-14-------------------------12-14-----------------|
D--14-14-------------------------14-14-------------------------|
A--------------------------------------------------------------|
E--------------------------------------------------------------|

e--------------------------12/---------------15/---------------|
B------------------12-15-----------12---15---------------------|
G----------12-14-----------------------------------------------|
D--14-14-------------------------------------------------------|
A--------------------------------------------------------------|
E--------------------------------------------------------------|

I just want to run around!
I just want to party down!
I just want to run around!
Party down!


then just mess around with the e minor pentatonic scale for a few bars...

i play something like this

e-------------------------------------------------------------------|
B---15b--15b--15b--15b--15p12--12----15b--15b--15b--15b--15p12--12--|
G-------------------------------------------------------------------|
D-------------------------------------------------------------------|
A-------------------------------------------------------------------|
E-------------------------------------------------------------------|


e--------------------------------------------------------------------------|
B---15b--15b--15b--15b--15p12--12----15--12-----12-------------------------|
G--------------------------------------------14----14--12--14--12----------|
D------------------------------------------------------------------14--14--|
A--------------------------------------------------------------------------|
E--------------------------------------------------------------------------|


[thennn this four times]

e--------------------------------------------------------------|
B--------------------------------------------------------------|
G--------------------------------------------------------------|
D--------------------------------------------------------------|
A--------------------------------------------------------------|
E--0--0--0---7--6--5--4--3---0--0--0---7--6--5--4--3-----------|

Next year I'll be 21
Look out world cause I wanna have fun
Next year I'll be 21
So look out world cause I wanna have fun!

[and finish on]

e--------------------------------------------------------------|
B--------------------------------------------------------------|
G----9---------------------------------------------------------|
D----9---------------------------------------------------------|
A----7---------------------------------------------------------|
E--------------------------------------------------------------|

woo!


jiro_the_fish91@hotmail.com
Добавлено: 04.05.2012
Другие материалы по этой песне:
  • Аккорды и текст

Страница создана 04.05.2012
http://primanota.ru/be-your-own-pet/super-soaked-chords.htm
Привет, Гость.
Предлагаем пройти революционный курс по гитаре.
Подарок от PrimaNota.Ru, забирай!