PrimaNota.ru - самый крупный в мире бесплатный архив песенных текстов, аккордов, табулатур и нот


Be Your Own Pet - Ouch - текст песни, таба, бас-таба, видео

Регистрация Запомнить меня
Войти через:  Facebook Google Twitter Vk Yandex Mail.ru

Be Your Own Pet - Ouch - текст песни, таба, бас-таба, видео

Печатать
Просмотров: 189
Song: Ouch
Artist be your own PET

The intro is kind of strange, but the song is very easy to play.

Intro:
E|--------------------------------------------------|
B|--------------------------------------------------|
G|--------------------------------------------------|
D|6------6-----6------6-----5-----5-----5-----5-----|
A|--7------7-----7------7-----4-----4-----4-----4---|
E|----7------7-----7------7-----5-----5-----5-----5-|

E|--------------------------------------------------|
B|--------------------------------------------------|
G|--------------------------------------8^^---------|
D|6------6-----6------6-----7-----7-----7^^---------|
A|--7------7-----7------7-----6-----6---------------|
E|----7------7-----7------7-----7-----7-------------|
                                        
Intro 2:

E|--------------------------------|
B|--------------------------------|
G|--------------------------------|
D|99999999999999992222222222222222|
A|77777777777777770000000000000000|
E|--------------------------------|

E|--------------------------------|
B|--------------------------------|
G|--------------------------------|
D|99999999999999994444444444444444|
A|77777777777777772222222222222222|
E|--------------------------------|

Verse:

E|--------------------------------|
B|--------------------------------|
G|--------88889999--------11112222|
D|99999999999999992222222222222222|
A|77777777777777770000000000000000|
E|--------------------------------|

E|--------------------------------|
B|------------------------44444444|
G|--------88889999--------xxxxxxxx|
D|99999999999999994444444444444444|
A|77777777777777772222222222222222|
E|--------------------------------|

Chorus:

E                                  
  When there's no more room in hell,

A
 The dead'll walk the earth.

E
  Feasting on the night when we're together,

B
  When they're tryin' hard to get us in the end!

E                                  
  When there's no more room in hell,

A
 The dead'll walk the earth.

E
  Feasting on the night when we're together,

B
  When they're tryin' hard to get us in the end!

Bridge:

E|------------------|
B|------------------|
G|------------------|
D|9-9-9-9-12-12-7-7-|
A|7-7-7-7-10-10-5-5-|
E|------------------|X4

E|----------------|
B|----------------|
G|----------------|
D|9---------------|
A|7---------------|
E|----------------|

E|--------------------------------|
B|--------------------------------|
G|--------------------------------|
D|999-99922-2-222-999-99944-4-444-|
A|777-77700-0-000-777-77722-2-222-|
E|--------------------------------|

E|--------------------------------|
B|--------------------------------|
G|--------------------------------|
D|99999999222222229999999944444444|
A|77777777000000007777777722222222|
E|--------------------------------|

Outro:

E       A

E       B B  A A  E

Song structure:

Intro x2
Intro 2
Verse x2
Chorus
Verse x2
Chorus
Bridge
Chorus x2
Chorus without words x2
Outro
Добавлено: 06.06.2012
Другие материалы по этой песне:
  • Аккорды и текст

Страница создана 06.03.2012
http://primanota.ru/be-your-own-pet/ouch-chords.htm
Привет, Гость.
Предлагаем пройти революционный курс по гитаре.
Подарок от PrimaNota.Ru, забирай!