PrimaNota.ru - самый крупный в мире бесплатный архив песенных текстов, аккордов, табулатур и нот


Be Your Own Pet - Lets Get Sandy - таба, видео

Регистрация Запомнить меня
Войти через:  Facebook Google Twitter Vk Yandex Mail.ru

Be Your Own Pet - Lets Get Sandy - таба, видео

Печатать
Просмотров: 172
Уроки эстрадного вокала в Санкт-Петербурге
Very short and very fast song. Not sure exactly how to play the verse, and the rythym is 
bit confusing, but I've transcribed it the best I can.


INTRO/CHORUS:

E|------------------------|
B|------------------------|
G|------------------------|
D|77-77-77-77-77-77-5--2--|
A|77-77-77-77-77-77-5--2--|
E|55-55-55-55-55-55-3--0--|x4

E|------------------------------------------------|
B|------------------------------------------------|
G|77-77-7--7--77-77-9--8--77-77-7--7--77-77-10-9--|
D|77-77-7--7--77-77-9--8--77-77-7--7--77-77-10-9--|
A|55-55-5--5--55-55-7--6--55-55-5--5--55-55-8--7--|
E|------------------------------------------------|

E|55-55-55-55-55-55-3--0--|
B|55-55-55-55-55-55-3--0--|
G|66-66-66-66-66-66-4--1--|
D|77-77-77-77-77-77-5--2--|
A|77-77-77-77-77-77-5--2--|
E|55-55-55-55-55-55-3--0--|x2

BRIDGE:

E|---------------------------------------------------------|
B|---------------------------------------------------------|
G|12--12--9--9--12--12--9--9--12--12--9--9--7---7-77-77-77-|
D|12--12--9--9--12--12--9--9--12--12--9--9--7---7-77-77-77-|
A|10--10--7--7--10--10--7--7--10--10--7--7--5---5-55-55-55-|
E|---------------------------------------------------------|

VERSE:

E|-----------------------|
B|-----------------------|
G|---7--7----77-5--7--5--|
D|7--7--7----77-5--7--5--|
A|7--5--5----55-3--5--3--|
E|5----------------------|x2

E|----------------------------------------------|
B|----------------------------------------------|
G|---7--7----77-5--7--5-----7--7----77-5--7--5--|
D|5--7--7----77-5--7--5--7--7--7----77-5--7--5--|
A|5--5--5----55-3--5--3--7--5--5----55-3--5--3--|
E|3----------------------5----------------------|

E|-----------------------------------------------|
B|-----------------------------------------------|
G|---7--7----77-5--7--5-----7--7----77-5--7--5--7|
D|9--7--7----77-5--7--5--7--7--7----77-5--7--5--7|
A|9--5--5----55-3--5--3--7--5--5----55-3--5--3--7|
E|7----------------------5----------------------5|


*drum solo*


REPEAT INTRO/CHORUS

OUTRO:

E|0--0--0--0--0--0--0--0--3--3--3--3--3--3--3--3--|
B|0--0--0--0--0--0--0--0--3--3--3--3--3--3--3--3--|
G|1--1--1--1--1--1--1--1--4--4--4--4--4--4--4--4--|
D|2--2--2--2--2--2--2--2--5--5--5--5--5--5--5--5--|
A|2--2--2--2--2--2--2--2--5--5--5--5--5--5--5--5--|
E|0--0--0--0--0--0--0--0--3--3--3--3--3--3--3--3--|

E|5--5--5--5--5--5--5--5--5--5--5--5--5--|
B|5--5--5--5--5--5--5--5--5--5--5--5--5--|
G|6--6--6--6--6--6--6--6--6--6--6--6--6--|
D|7--7--7--7--7--7--7--7--7--7--7--7--7--|
A|7--7--7--7--7--7--7--7--7--7--7--7--7--|
E|5--5--5--5--5--5--5--5--5--5--5--5--5--|

PM me any corrections.
Добавлено: 10.07.2012
Другие материалы по этой песне:
  • Аккорды и текст

Страница создана 10.07.2012
http://primanota.ru/be-your-own-pet/lets-get-sandy-chords.htm
Привет, Гость.
Предлагаем пройти революционный курс по гитаре.
Подарок от PrimaNota.Ru, забирай!