PrimaNota.ru - самый крупный в мире бесплатный архив песенных текстов, аккордов, табулатур и нот


Be Your Own Pet - Fuuuuuun - текст песни, таба, бас-таба, видео

Регистрация Запомнить меня
Войти через:  Facebook Google Twitter Vk Yandex Mail.ru

Be Your Own Pet - Fuuuuuun - текст песни, таба, бас-таба, видео

Печатать
Просмотров: 257
Уроки эстрадного вокала в Санкт-Петербурге
FUUUUUUN
by Be Your Own Pet

I'm not sure if the bridge is correct on this, but it sounds pretty close.


INTRO/VERSE

  G       A#A   C          A#A  G       A#A  F
E|3-3-3-3-6-5---8--8--8--8-6-5--3-3-3-3-6-5--1-1-1-1-1-1-1-1-|
B|3-3-3-3-6-5---8--8--8--8-6-5--3-3-3-3-6-5--1-1-1-1-1-1-1-1-|
G|4-4-4-4-7-6---9--9--9--9-7-6--4-4-4-4-7-6--2-2-2-2-2-2-2-2-|
D|5-5-5-5-8-7--10-10-10-10-8-7--5-5-5-5-8-7--3-3-3-3-3-3-3-3-|
A|5-5-5-5-8-7--10-10-10-10-8-7--5-5-5-5-8-7--3-3-3-3-3-3-3-3-|
E|3-3-3-3-6-5---8--8--8--8-6-5--3-3-3-3-6-5--1-1-1-1-1-1-1-1-|x4

CHORUS
  G   F  F# G   F  F# G      F  F# G         F  F# G
E|3---1--2--3---1--2--3--3---1--2--3--3--3---1--2--3--3--3--3---|
B|3---1--2--3---1--2--3--3---1--2--3--3--3---1--2--3--3--3--3---|
G|4---2--3--4---2--3--4--4---2--3--4--4--4---2--3--4--4--4--4---|
D|5---3--4--5---3--4--5--5---3--4--5--5--5---3--4--5--5--5--5---|
A|5---3--4--5---3--4--5--5---3--4--5--5--5---3--4--5--5--5--5---|
E|3---1--2--3---1--2--3--3---1--2--3--3--3---1--2--3--3--3--3---|

  F  F# G               F  F# G            F  F# G
E|1--2--3--3--3--3--3---1--2--3--3--3--3---1--2--3--3--3---|
B|1--2--3--3--3--3--3---1--2--3--3--3--3---1--2--3--3--3---|
G|2--3--4--4--4--4--4---2--3--4--4--4--4---2--3--4--4--4---|
D|3--4--5--5--5--5--5---3--4--5--5--5--5---3--4--5--5--5---|
A|3--4--5--5--5--5--5---3--4--5--5--5--5---3--4--5--5--5---|
E|1--2--3--3--3--3--3---1--2--3--3--3--3---1--2--3--3--3---|

  F  F# G      F  F#
E|1--2--3--3---1--2--|
B|1--2--3--3---1--2--|
G|2--3--4--4---2--3--|
D|3--4--5--5---3--4--|
A|3--4--5--5---3--4--|
E|1--2--3--3---1--2--|

INTRO/VERSE x2

BRIDGE

E|------------------------------|
B|------------------------------|
G|------------------------------|
D|7/-15\-14\-12--9/-12/-14/-15--|
A|7/-15\-14\-12--9/-12/-14/-15--|
E|5/-13\-12\-10--7/-10/-12/-13--|x8

INTRO/VERSE x2

OUTRO
  G
E|3---3--3---3--3--3---3--3--3--3---3--3--3--3--3---|
B|3---3--3---3--3--3---3--3--3--3---3--3--3--3--3---|
G|4---4--4---4--4--4---4--4--4--4---4--4--4--4--4---|
D|5---5--5---5--5--5---5--5--5--5---5--5--5--5--5---|
A|5---5--5---5--5--5---5--5--5--5---5--5--5--5--5---|
E|3---3--3---3--3--3---3--3--3--3---3--3--3--3--3---|

  G
E|3--3--3--3---3--3--3---3--3---3|
B|3--3--3--3---3--3--3---3--3---3|
G|4--4--4--4---4--4--4---4--4---4|
D|5--5--5--5---5--5--5---5--5---5|
A|5--5--5--5---5--5--5---5--5---5|
E|3--3--3--3---3--3--3---3--3---3|


Listen to the track for the rythym. Post any corrections in comments.
Добавлено: 13.03.2012
Другие материалы по этой песне:
  • Аккорды и текст

Страница создана 13.03.2012
http://primanota.ru/be-your-own-pet/fuuuuuun-chords.htm
Привет, Гость.
Предлагаем пройти революционный курс по гитаре.
Подарок от PrimaNota.Ru, забирай!