PrimaNota.ru - самый крупный в мире бесплатный архив песенных текстов, аккордов, табулатур и нот


Be Forest - Hanged Man - таба, видео

Регистрация Запомнить меня
Войти через:  Facebook Google Twitter Vk Yandex Mail.ru

Be Forest - Hanged Man - таба, видео

Печатать
Просмотров: 65
Уроки эстрадного вокала в Санкт-Петербурге
Be Forest - Hanged Man
Track 1 from the single released on We Were Never Being Boring (2012).

Tabbed by Isaac Murguia, December 2015.
Originally uploaded to Ultimate-Guitar.com
Contact: www.youtube.com/user/Goadiroth

Listen here:
https://wwnbb.bandcamp.com/album/wwnbb-035-hanged-man

INTRO:
e|-0--5555-x-x-xxx-xxx-|-0--7777-x-x-xxx-xxx-|-0--8888-x-x-xxx-xxx-|-0--7777-x-x-xx--------|
B|-0--5555-x-3-333-333-|-0--7777-x-5-555-555-|-0--8888-x-7-777-777-|-0--7777-x-5-5x-7--7-x-|
G|-0--0000-x-x-xxx-xxx-|-0--0000-x-x-xxx-xxx-|-0--0000-x-x-xxx-xxx-|-0--0000-x-x-xx-7--7-5-|
D|-2--2222-x-2-222-222-|-4--4444-x-4-444-444-|-5--5555-x-5-555-555-|-4--4444-x-4-4x-4--4-4-|
A|-3--3333-x-3-333-333-|-5--5555-x-5-555-555-|-7--7777-x-7-777-777-|-5--5555-x-5-5x-5--5-5-|
E|---------------------|---------------------|---------------------|-----------------------| [x2]

VERSE A:
e|-0------------|-0------------|
B|-0------------|-0------------|
G|-0------------|-0------------|
D|-2------------|-2------------|
A|-3----2---2-3-|-3----2---2-3-|
E|--------------|--------------|

VERSE B:
e|-00000000-000-000--00000000-000-000--00000000-000-000--00000000-000-000-|
B|-00000000-000-000--33333333-333-333--00000000-000-000--33333333-333-333-|
G|-00000000-000-000--00000000-000-000--00000000-000-000--00000000-000-000-|
D|-22222222-222-222--44444444-444-444--55555555-555-555--44444444-444-444-|
A|-33333333-333-333--55555555-555-555--77777777-777-777--55555555-555-555-|
E|------------------------------------------------------------------------| [x2]

Repeat INTRO [x1]

PRE-CHORUS:
e|-00000000-000-000--00000000-000-000-|
B|-00000000-000-000--33333333-333-333-|
G|-00000000-000-000--00000000-000-000-|
D|-22222222-222-222--44444444-444-444-|
A|-33333333-333-333--55555555-555-555-|
E|------------------------------------| [x4]

CHORUS:
e|---------------------------------------------------------------------|
B|---------------------------------------------------------------------|
G|-5555555--4-44-11-11-11--4-44-11-11-11-11-11-11/12-12-12-12-12-12-12-|
D|-xxxxxxx--x-xx-x--x--x---x-xx-x--x--x--x--x--x--x--x--x--x--x--x--x--|
A|-3333333--2-22-9--9--9---2-22-9--9--9--9--9--9-/10-10-10-10-10-10-10-|
E|---------------------------------------------------------------------| [x4]

Repeat VERSE A
Repeat VERSE B [x1]
Repeat INTRO [x2]
Repeat PRE-CHORUS [x4]
Repeat CHORUS [x4]

End. Please rate! :D
Добавлено: 19.06.2016
Другие материалы по этой песне:
  • Аккорды и текст

Страница создана 19.06.2016
http://primanota.ru/be-forest/hanged-man-chords.htm
Привет, Гость.
Предлагаем пройти революционный курс по гитаре.
Подарок от PrimaNota.Ru, забирай!