PrimaNota.ru - самый крупный в мире бесплатный архив песенных текстов, аккордов, табулатур и нот


Be Bop Deluxe - Soundtrack - таба, видео

Регистрация Запомнить меня
Войти через:  Facebook Google Twitter Vk Yandex Mail.ru

Be Bop Deluxe - Soundtrack - таба, видео

Печатать
Просмотров: 190
Авторы музыки: Bill Nelson
Авторы текста: Bill Nelson
-------------------------------------------------------------------------------
Soundtrack - Be Bop Deluxe
-------------------------------------------------------------------------------

Tabbed by: axe victim

Email: ax3v1ct1m@gmail.com

Leave a message on my  ‘Ultimate Guitar'  profile or comment 
here and I'll get back to you.

Tuning: EADGBe

| /  slide up
| \  slide down
| s  slur ( very quick slide with emphasis on the last note )
| h  hammer-on
| p  pull-off
| b  bend
| r  relax bend
| pb pre-bend note to pitch
| ~  vibrato
| +  harmonic
| x  Mute note
|(0) optional note



By request, this epic track from the  Futurama  sessions.  Again, this song was
probably written on piano, so it was challenging to tab.  Hope you enjoy it. 


Intro and theme: ( piano chords, lead guitar... ) Time signature is something 
weird like 9/4, I've put one extra beat in the second bar.  Easier to listen to 
and feel than to explain.



___Dm__________G_______F___Am_______F___G___________________F_______G______

e|--------------------------------|----------------------------------------|
B|--------------------------------|----------------------------------------|
G|------------/7-------5---9------|-5---7~~~~~~~~~~~~\---------------------|
D|(0)-----------------------------|----------------------------------------|
A|--------------------------------|----------------------------------------|
E|--------------------------------|----------------------------------------|

 | 1 - & - 2 - & - 3 - & - 4 - & -| 1 - & - 2 - & - 3 - & - 4 - & - 5 - & -|



___Dm__________G_______F___Am_______F___G___________________F_______G______

e|--------------------------------|----------------------------------------|
B|--------------------------------|----------------------------------------|
G|------------/7-------5---9------|-5---7~~~~~~~~~~~~\---------------------|
D|(0)-----------------------------|----------------------------------------|
A|--------------------------------|----------------------------------------|
E|--------------------------------|----------------------------------------|


___Dm__________G_______F___Am_______F___G__________

e|--------------------------------|----------------|
B|--------------------------------|----------------|
G|------------/7-------5---9------|-5---7~~~~~~~~~\|
D|(0)-----------------------------|----------------|
A|--------------------------------|----------------|
E|--------------------------------|----------------|

 | 1 - & - 2 - & - 3 - & - 4 - & -| 1 - & - 2 - & -|



Part A: ( 4/4 time )


___C5______________________________________________________________

e|--------------------------------|--------------------------------|
B|--------------------------------|-------------13~~~~~~-----------|
G|--------------------------------|-----12-h14---------------------|
D|-----------------10------10-h12-|-14-----------------------------|
A|---------10-h12------12---------|--------------------------------|
E|(8)-----------------------------|--------------------------------|

 | 1 - & - 2 - & - 3 - & - 4 - & -| 1 - & - 2 - & - 3 - & - 4 - & -|


___D5______________________________________________________________

e|--------------------------------|-------------------------15-----|
B|--------------------------------|-------------13--15-b17---------|
G|--------------------------------|-----12-h14---------------------|
D|-----------------10------10-h12-|-14-----------------------------|
A|---------10-h12------12---------|--------------------------------|
E|(10)----------------------------|--------------------------------|


___G5______________________________________________________________

e|--------------------------------|--------------------------------|
B|--------------------------------|-------------13--12------12--13-|
G|--------------------------------|-----12-h14----------14---------|
D|-----------------10------10-h12--/14-----------------------------|
A|(10)-----10-h12------12---------|--------------------------------|
E|--------------------------------|--------------------------------|


___F5______________________________________________________________

e|------12---13----15--12h15p12---|-12-----------------------------|
B|-15--------------------------13-|---13---------------------------|
G|--------------------------------|-----12~~~~~~~\-----------------|
D|--------------------------------|--------------------------------|
A|--------------------------------|--------------------------------|
E|--------------------------------|--------------------------------|


___C5______________________________________________________________

e|--------------------------------|--------------------------------|
B|--------------------------------|-----13--12------12~~~----------|
G|-----------------------------12--h14----------14-----------------|
D|-----------------10-h12-h14-----|--------------------------------|
A|---------10-h12-----------------|--------------------------------|
E|--------------------------------|--------------------------------|


___D5______________________________________________________________
                 ( s = slur: very rapid slide )
e|--------------------------------|----------------12h13----12-----|
B|-----------------------------13-|-12-----12h13h15----------------|
G|---------------------12-h14-----|-----14-------------------------|
D|-------------10-12s14-----------|--------------------------------|
A|-----10-h12---------------------|--------------------------------|
E|--------------------------------|--------------------------------|


___G5______________________________________________________________

e|-----15b17~~~~~~r15~~~~~~12-h15--p12~~~~~---------------------12-|
B|--------------------------------|-------------------------13-----|
G|--------------------------------|--------------------------------|
D|--------------------------------|--------------------------------|
A|--------------------------------|--------------------------------|
E|--------------------------------|--------------------------------|


___F5______________________________________________________________

e|--------------------------------|--------------------------------|
B|-13-----------------------------|--------------------------------|
G|------12------------------------|--------------------------------|
D|-----------15----14---15---14---|--------------------------------|
A|--------------------------------|-15~~~~~~~~~~~~~~~~~~~~~~~~~~~~~~\
E|--------------------------------|--------------------------------|




Verse:


___Fsus2___________________________________________________________
                 ( piano, arranged for guitar... )            " Tin... "
e|---------8---------------8------|---------8---------------8------|
B|-----8-------8-------8-------8--|-----8-------8-------8-------8--|
G|-10--------------10-------------|-10--------------10-------------|
D|--------------------------------|--------------------------------|
A|--------------------------------|--------------------------------|
E|--------------------------------|--------------------------------|



___Fsus2___________________________________________________________
 " aero  - planes  trace   the   time                   past our... "
e|--------------------------------|--------------------------------|
B|--------------------------------|--------------------------------|
G|--------------------------------|--------------------------------|
D|--------------------------------|--------------------------------|
A|-8~~~~~~~~~~~~~~~~~~~~~~~~~~~~~~~~~~~~~~~~~~~~~~~~~~~~~~~~~------|
E|--------------------------------|--------------------------------|
 ( piano, arranged for guitar... )
e|---------8---------------8------|---------8---------------8------|
B|-----8-------8-------8-------8--|-----8-------8-------8-------8--|
G|-10--------------10-------------|-10--------------10-------------|
D|--------------------------------|--------------------------------|
A|--------------------------------|--------------------------------|
E|--------------------------------|--------------------------------|


___C/E_____________________________________________________________
         " fading   windows   eyes,                         and the... "
e|--------------------------------|--------------------------------|
B|--------------------------------|--------------------------------|
G|--------------------------------|--------------------------------|
D|--------------------------------|--------------------------------|
A|-7~~~~~~~~~~~~~~~~~~~~~~~~~~~~~~~~~~~~~~~~~~~~~~~~~~~~~~~~~------|
E|--------------------------------|--------------------------------|
 ( piano, arranged for guitar... )
e|---------8---------------8------|---------8---------------8------|
B|-----8-------8-------8-------8--|-----8-------8-------8-------8--|
G|-9---------------9--------------|-9---------------9--------------|
D|--------------------------------|--------------------------------|
A|--------------------------------|--------------------------------|
E|--------------------------------|--------------------------------|


___Dm______________________________________________________________
 " panes   are     pains   in   -   side    through which   we... "
e|--------------------------------|--------------------------------|
B|--------------------------------|--------------------------------|
G|--------------------------------|--------------------------------|
D|--------------------------------|--------------------------------|
A|-5~~~~~~~~~~~~~~~~~~~~~~~~~~~~~~~~~~~~~~~~~~~~~~~~~~~~~~~~~------|
E|--------------------------------|--------------------------------|
 ( piano, arranged for guitar... )
e|---------8---------------8------|---------8---------------8------|
B|-----8-------8-------8-------8--|-----8-------8-------8-------8--|
G|-7---------------7--------------|-7---------------7--------------|
D|--------------------------------|--------------------------------|
A|--------------------------------|--------------------------------|
E|--------------------------------|--------------------------------|


___F_______________________________________________________________
 " see... "
e|--------------------------------|--------------------------------|
B|--------------------------------|--------------------------------|
G|--------------------------------|--------------------------------|
D|--------------------------------|--------------------------------|
A|-8~~~~~~~~~~~~~~~~~~~~~~~~~~~~~~~~~~~~~~~~~~~~~~~~~~~~~~~~~------|
E|--------------------------------|--------------------------------|
 ( piano, arranged for guitar... )
e|---------8---------------8------|---------8---------------8------|
B|-----8-------8-------8-------8--|-----8-------8-------8-------8--|
G|-10--------------10-------------|-10--------------10-------------|
D|--------------------------------|--------------------------------|
A|--------------------------------|--------------------------------|
E|--------------------------------|--------------------------------|



Repeat verse section more or less the same until...


___C_______________________________________________________________
 " keep... "                               ( drum roll... )
e|--------------------------------|--------------------------------|
B|--------------------------------|--------------------------------|
G|--------------------------------|--------------------------------|
D|--------------------------------|--------------------------------|
A|-3~~~~~~~~~~~~~~~~~~~~~~~~~~~~--|--------------------------------|
E|--------------------------------|--------------------------------|





Part B: ( 9/4 )


___G___________Am______F___G________________________F_______G___Dm_________
                    ( piano, arranged for guitar... )
e|-------------12-----------------|----------------------------------------|
B|-15----------13------13--15-----|-----------------13------15--10---------|
G|-16----------14------14--16-----|-----------------14------16--10---------|
D|-17------------------15--17-----|-----------------15------17--12---------|
A|--------------------------------|----------------------------------------|
E|--------------------------------|----------------------------------------|

 | 1 - & - 2 - & - 3 - & - 4 - & -| 1 - & - 2 - & - 3 - & - 4 - & - 5 - & -|


___G_______F___Am______F___G________________________F_______G___Dm_________
                    ( piano, arranged for guitar... )
e|-------------12-----------------|----------------------------------------|
B|-15------13--13------13--15-----|-----------------13------15--10---------|
G|-16------14--14------14--16-----|-----------------14------16--10---------|
D|-17------15----------15--17-----|-----------------15------17--12---------|
A|--------------------------------|----------------------------------------|
E|--------------------------------|----------------------------------------|


Repeat more or less the same until...


___G_______F___Am______F___G_______________________
           ( piano, arranged for guitar... )
e|-------------12-----------------|----------------|
B|-15------13--13------13--15-----|----------------|
G|-16------14--14------14--16-----|----------------|
D|-17------15----------15--17-----|----------------|
A|--------------------------------|----------------|
E|--------------------------------|----------------|

 | 1 - & - 2 - & - 3 - & - 4 - & -| 1 - & - 2 - & -|



Part C: (4/4 )


___B5_______________________________Ab5____________________________
             " Bold children of the air... "
e|--------------------------------|--------------------------------|
B|--------------------------------|--------------------------------|
G|--------------------------------|--------------------------------|
D|-9------------------------------|-6-----------------------6---/--|
A|-9------------------------------|-6-----------------------6---/--|
E|-7------------------------------|-4-----------------------4---/--|


___B5_______________________________Ab5____________________________
         " Swoop and fighting       feathers    fly... "
e|--------------------------------|--------------------------------|
B|--------------------------------|--------------------------------|
G|--------------------------------|--------------------------------|
D|/9------------------------------|-6------------------------------|
A|/9------------------------------|-6------------------------------|
E|/7------------------------------|-4------------------------------|


___G________________________________F______________________________
         " Leave the hue and cry  behind        and far         below... "
e|--------------------------------|--------------------------------|
B|--------------------------------|--------------------------------|
G|--------------------------------|--------------------------------|
D|-5------------------------------|-3------------------------------|
A|-5------------------------------|-3------------------------------|
E|-3------------------------------|-1------------------------------|



Guitar solo 1: 


___Eb7#9___________________________________________________________
                  ( ^ = slight bend.  s = slur: very quick slide )
e|13h14---11-----11---------------|--------------------------------|
B|----------14p11--14p13p11--11---|--------------------------------|
G|-------------------------13--11^~--------------------------------|
D|--------------------------------|-13--11-------------------------|
A|--------------------------------|-------13s11-9---11p9----9~~----|
E|--------------------------------|---------------------11---------|
 ( rhythm guitar... )
e|--------------------------------|--------------------------------|
B|---------11--------------11-----|--------------------------------|
G|---------11--------------11-----|--------------------------------|
D|---------11--------------11-----|--------------------------------|
A|--------------------------------|-----------------------------4--|
E|-11----------9---11--11------3^-|-----5---6-------4---5---6------|

 | 1 - & - 2 - & - 3 - & - 4 - & -| 1 - & - 2 - & - 3 - & - 4 - & -|



___Eb7#9___________________________________________________________

e|--------------------------------|----------------11--------------|
B|-----------------------11~~~----|--------------11--14p11--11-14p11--11
G|-----------------11----13b15r13p11-13p11--11-13b15------13--------13
D|---------11--13-----13----------|-------13-----------------------|
A|----/13-------------------------|--------------------------------|
E|--------------------------------|--------------------------------|
 ( rhythm guitar... )
e|--------------------------------|--------------------------------|
B|---------11--------------11-----|--------------------------------|
G|---------11--------------11-----|--------------------------------|
D|---------11--------------11-----|--------------------------------|
A|--------------------------------|-----------------------------4--|
E|-11----------9---11--11------3^-|-----5---6-------4---5---6------|




___Eb_(x68xxx)______________________Db_(x46xxx)____________________
         " In the room behind the door... "
e|--------------------------------|-----14----11----14p11--11---11-|
B|-14b16~~~~~~~~~~~~~~~~~~~~~~~~~-|----------------------14---11--14
G|--------------------------------|--------------------------------|
D|--------------------------------|--------------------------------|
A|--------------------------------|--------------------------------|
E|--------------------------------|--------------------------------|


___Eb_(x68xxx)______________________Db_(x46xxx)____________________
       " like a ghost who walks the floor                     I go... "
e|--------------------------------14p11--11------------------------|
B|-14b16~~~~~~~~~~~~~~~~~~~~~~~~~-|----14--14p11--11---------------|
G|--------------------------------|-------------13--14p13p11--13p11--
D|--------------------------------|-------------------------13-----13p11h13~
A|--------------------------------|--------------------------------|
E|--------------------------------|--------------------------------|





___Dm__________G_______F___G________F___G__________________________________
1)" searching...                                         ...for     a... "
2)" trace...                                         ...of  wing or... "
3)" beak...                                          ...I   feel    so... "
e|-------------------------12-----|----------------------------------------|
B|-10----------15------13--13-----|-13--15---------------------------------|
G|-10----------16------14--14-----|-14--16---------------------------------|
D|-12----------17------15---------|-15--17---------------------------------|
A|--------------------------------|----------------------------------------|
E|--------------------------------|----------------------------------------|

 | 1 - & - 2 - & - 3 - & - 4 - & -| 1 - & - 2 - & - 3 - & - 4 - & - 5 - & -|


___F_______________C/E______________Dm_____________
4)" weak   for   a  while from your  passionate   smile... "
e|--------------------------------|----------------|
B|--------------------------------|----------------|
G|--------------------------------|----------------|
D|-10--------------10-------------|-7--------------|
A|-8---------------7--------------|-5--------------|
E|--------------------------------|----------------|

 | 1 - & - 2 - & - 3 - & - 4 - & -| 1 - & - 2 - & -|



Repeat part A. ( 01:49 )

Repeat verse.

Repeat part B.

Repeat part C.

Guitar solo 2: ( similar to Guitar solo one )

Repeat part B.

Repeat part A.

Repeat one verse.  


Final Guitar solo: ( not strictly 4/4 time, last bar in sequence is cut short )


___F_______________________________________________________________
 ( rhythm guitar parts... )
e|--------------------------------|--------------------------------|
B|--------------------------------|--------------------------------|
G|--------------------------------|--------------------------------|
D|(10)-------------------------7--|-----9---10--12--14-------------|
A|(8)--------------------------8--|-----10--12--14--15-------------|
E|--------------------------------|--------------------------------|

 | 1 - & - 2 - & - 3 - & - 4 - & -| 1 - & - 2 - & - 3 - & - 4 - & -|


___C/E_____________________________________________________________
 ( rhythm guitar parts... )
e|--------------------------------|--------------------------------|
B|--------------------------------|--------------------------------|
G|--------------------------------|--------------------------------|
D|(10)-------------------------5--|-----7---9---10--12-------------|
A|(7)--------------------------7--|-----8---10--12--14-------------|
E|--------------------------------|--------------------------------|


___Dm______________________________________________________
 ( rhythm guitar parts... )
e|--------------------------------|------------------------|
B|--------------------------------|------------------------|
G|--------------------------------|------------------------|
D|(7)--------------------------3--|-----5---7---9---10-----|
A|(5)--------------------------5--|-----7---8---10--12-----|
E|--------------------------------|------------------------|

 | 1 - & - 2 - & - 3 - & - 4 - & -| 1 - & - 2 - & - 3 - & -|


Chord sequence repeats throughout solo.


Guitar solo three: ( A minor pentatonic/C major scale for the most part... )


___F_______________________________________________________________

e|--------------------------------------5--------------------------|
B|----------------------------------5---5---8p5-5------------------|
G|-------------------------5---7b9-------------7--7b9r7p5---7p5----|
D|-----------------5---7----------------------------------7----7\--|
A|--------------------------------|--------------------------------|
E|--------------------------------|--------------------------------|


Repeat, more or less the same over C/E chord, then...


___Dm______________________________________________________

e|--------------------------------|------------------------|
B|--------------------------------|------------------------|
G|-------------------------5------|-5---7b9r7--p5---7------|
D|-----------------5---7-------7--|------------------------|
A|---------5---7------------------|------------------------|
E|--------------------------------|------------------------|

 | 1 - & - 2 - & - 3 - & - 4 - & -| 1 - & - 2 - & - 3 - & -|

___F_______________________________________________________________

e|--------------------------------|--------------------------------|
B|--------------------------------|--------------------------------|
G|-5---------------5-----------5--|---------5-------5-------7b9----|
D|-------------7-----------7------|-----7-------7------------------|
A|--------------------------------|--------------------------------|
E|--------------------------------|--------------------------------|


___C/E_____________________________________________________________
(04:14)
e|--------------------------------|-------5---------5--------------|
B|--------------------------------|-----5---------5---8-5----8b10--|
G|-------------5---7b9r7-5-7p5----|-7b9--------7b9--------7b9------|
D|-----5---7-------------------7--|--------------------------------|
A|--------------------------------|--------------------------------|
E|--------------------------------|--------------------------------|


___Dm_____________________________________________________
( 04:17)
e|-----8b10--------8-------5---8--|-5----------------------|
B|--------------------------------|-----5---8-------5------|
G|--------------------------------|-------------7----------|
D|--------------------------------|------------------------|
A|--------------------------------|------------------------|
E|--------------------------------|------------------------|



___F_______________________________________________________________
                                    ( s = slur, rapid slide )
e|--------------------------------|--------------------------------|
B|--------------------------------|--------------------------------|
G|-7b9~~~~~~~~r7p5h7-------5------|-7---5--------------------------|
D|-----------------------------7--|---------7---5------------------|
A|--------------------------------|----------------7s5--3----------|
E|--------------------------------|-------------------------5~~~---|


___C/E_____________________________________________________________

e|--------------------------------|--------------------------------|
B|--------------------------------|--------------------------------|
G|--------------------------------|-5-----------5---7b9~~r7b9~~~~~-|
D|---------------------5------7---|-------7------------------------|
A|-------------3-5s7--------------|--------------------------------|
E|-----3---5----------------------|--------------------------------|


___Dm______________________________________________________

e|--------------------------------|-------12---13--/15-----|
B|-------------------12h13h15-12h13h15---------------------|
G|-------------12--14-------------|------------------------|
D|--------/14---------------------|------------------------|
A|--------------------------------|------------------------|
E|--------------------------------|------------------------|



___F_______________________________________________________________
(04:27)
e|-15b17-----------15b17--------15b17~~r15--12--15~~~~~~~----------|
B|--------------------------------|-----------------15b17---13~~---|
G|--------------------------------|--------------------------------|
D|--------------------------------|--------------------------------|
A|--------------------------------|--------------------------------|
E|--------------------------------|--------------------------------|


___C/E_____________________________________________________________

e|--------------------------------|--------------------------------|
B|---------13-13-13-13-----13-------13--16b18-------15b17---13~~~~-|
G|---------------------14------14-|--------------------------------|
D|--------------------------------|--------------------------------|
A|--------------------------------|--------------------------------|
E|--------------------------------|--------------------------------|


___Dm______________________________________________________

e|---------17------13--15-----13-15-17----------17b20~~----|
B|-----13------17----------17-----|------------------------|
G|--------------------------------|------------------------|
D|--------------------------------|------------------------|
A|--------------------------------|------------------------|
E|--------------------------------|------------------------|


___F_______________________________________________________________
        ( pb = pre-bend note to pitch )
e|pb20~~~~~~~~~~~~r17~~~~~~~~~~~~~~~~~~~15------17--15h17p15p13-15-|
B|--------------------------------|--------------------------13----|
G|--------------------------------|--------------------------------|
D|--------------------------------|--------------------------------|
A|--------------------------------|--------------------------------|
E|--------------------------------|--------------------------------|


___C/E_____________________________________________________________

e|-13-\12----13h15-12-------------|-----------------0-------15b17~~~
B|--------------------13----------|--------------------------------|
G|-----------------------12~~~\---|--------------------------------|
D|--------------------------------|--------------------------------|
A|--------------------------------|--------------------------------|
E|--------------------------------|--------------------------------|


___Dm______________________________________________________

e|---------12--15--12------12-----|--------------12-13--12h13
B|---------------------13-----13-12~~~~~~~~~13-15-----15---|
G|--------------------------------|------------------------|
D|--------------------------------|------------------------|
A|--------------------------------|------------------------|
E|--------------------------------|------------------------|


Etc, etc, descends into chaos and fades out, you should be able to figure out 
any missing parts using what you've learnt already.  I will add some more info
below.



Additional:


Practice this scale for part A solos, hammer-on/pull-off or slide as you wish,
this is just a guide. Practice in reverse as well. 
Use first, second and fourth fingers for the 3-note-per-string parts.

___C_major_________________________________________________________

e|---------------------------------------12h13h15---15b17----------|
B|------------------------------12h13h15---------------------------|
G|------------------------12h14------------------------------------|
D|---------------10h12/14------------------------------------------|
A|---------10h12---------------------------------------------------|
E|-8-10/12---------------------------------------------------------|


This C major arpeggio appears now and then


___C major arp_______________________________________________

e|-15p12----------------------12----15--12h15p12-------------|
B|-------13----------------13--------------------13~~~-------|
G|----------12----------12-----------------------------------|
D|-------------14----14--------------------------------------|
A|----------------15-----------------------------------------|
E|-----------------------------------------------------------|



Guitar solos One and Two use the Ebm pentatonic/blues scale.  Here's a typical
example...

___Ebm___________________________________________________________________________

e|--------------------------11-14b16-14~11---------------------------------------|
B|---------------------11h14--------------14p11--11------------------------------|
G|----------------11h13------------------------13--14p13p11----------------------|
D|-----------11h13-----------------------------------------13p11-----------------|
A|----9-11/13---------------------------------------------------13s11-9----------|
E|-11-------------------------------------------------------------------11p9h11~-|



The final guitar solo uses the A minor/C major pent scales.

Example:

___A_minor_pent____________________________________________________

e|---------------------5~~-8p5-----------5-------------------------|
B|-----------------5h8---------8p5-----5---------------------------|
G|-------------5h7-----------------7b9-----7p5---------------------|
D|---------5h7---------------------------------7p5-----------------|
A|---3-5/7-----------------------------------------7s5-3-----------|
E|-5-----------------------------------------------------5~~-------|




I have tried to arrange the verse piano part for guitar, you would need to 
use your thumb for the bass notes on the sixth string and play fingerstyle.
Try to keep your first finger on the 3rd & 4th string on 12th fret, use your
second finger for 2nd string 13th fret, so only your thumb and pinky change
position.

___F_______________________________________________________________

e|--------------------------------|--------------------------------|
B|---------13--------------13-----|---------13--------------13-----|
G|-----12------12------12------12-|-----12------12------12------12-|
D|-15--------------15-------------|-15--------------15-------------|
A|--------------------------------|--------------------------------|
E|-13-----------------------------|--------------------------------|
   T
 | 1 - & - 2 - & - 3 - & - 4 - & -| 1 - & - 2 - & - 3 - & - 4 - & -|


___C/E_____________________________________________________________

e|--------------------------------|--------------------------------|
B|---------13--------------13-----|---------13--------------13-----|
G|-----12------12------12------12-|-----12------12------12------12-|
D|-14--------------14-------------|-14--------------14-------------|
A|--------------------------------|--------------------------------|
E|-12-----------------------------|--------------------------------|
   T

___Dm______________________________________________________________

e|--------------------------------|--------------------------------|
B|---------13--------------13-----|---------13--------------13-----|
G|-----12------12------12------12-|-----12------12------12------12-|
D|-12--------------12-------------|-12--------------12-------------|
A|--------------------------------|--------------------------------|
E|-10-----------------------------|--------------------------------|
   T

___F_______________________________________________________________

e|--------------------------------|--------------------------------|
B|---------13--------------13-----|---------13--------------13-----|
G|-----12------12------12------12-|-----12------12------12------12-|
D|-15--------------15-------------|-15--------------15-------------|
A|--------------------------------|--------------------------------|
E|-13-----------------------------|--------------------------------|
   T


I think that covers everything!


Words and music by Bill Nelson.




| /  slide up
| \  slide down
| s  slur ( very quick slide with emphasis on the last note )
| h  hammer-on
| p  pull-off
| b  bend
| r  relax bend
| pb pre-bend note to pitch
| ~  vibrato
| +  harmonic
| x  Mute note
|(0) optional note


Добавлено: 03.07.2012
Другие материалы по этой песне:
  • Аккорды и текст

Страница создана 03.07.2012
http://primanota.ru/be-bop-deluxe/soundtrack-chords.htm
Привет, Гость.
Предлагаем пройти революционный курс по гитаре.
Подарок от PrimaNota.Ru, забирай!