PrimaNota.ru - самый крупный в мире бесплатный архив песенных текстов, аккордов, табулатур и нот


Be Bop Deluxe - Panic In The World - таба, видео

Регистрация Запомнить меня
Войти через:  Facebook Google Twitter Vk Yandex Mail.ru

Be Bop Deluxe - Panic In The World - таба, видео

Печатать
Просмотров: 124
Авторы музыки: Bill Nelson
Авторы текста: Bill Nelson
-------------------------------------------------------------------------------
        Panic In The World - Be Bop Deluxe
-------------------------------------------------------------------------------
Tabbed by: axe victim
Email: Leave a message on my  ‘Ultimate Guitar'  profile or 
comment here and I'll get back to you.

Tuning: EADGBe

| x  Mute note
| D/A chord/bass note


Intro: Mute chords with palm and gradually release pressure and 
strum harder to increase volume over two bars of A, then do the 
same with two bars of D.



___A_______________________________________________________________ 
( palm mute )
e|-x------------------------------|--------------------------------|
B|-2---2---2---2---2---2---2---2--|-2---2---2---2---2---2---2---2--|
G|-2---2---2---2---2---2---2---2--|-2---2---2---2---2---2---2---2--|
D|-2---2---2---2---2---2---2---2--|-2---2---2---2---2---2---2---2--|
A|-0---0---0---0---0---0---0---0--|-0---0---0---0---0---0---0---0--|
E|-x------------------------------|--------------------------------|

 | 1 - & - 2 - & - 3 - & - 4 - & -| 1 - & - 2 - & - 3 - & - 4 - & -|

___D/A_____________________________________________________________ 
( palm mute )
e|--------------------------------|--------------------------------|
B|-3---3---3---3---3---3---3---3--|-3---3---3---3---3---3---3---3--|
G|-2---2---2---2---2---2---2---2--|-2---2---2---2---2---2---2---2--|
D|-4---4---4---4---4---4---4---4--|-4---4---4---4---4---4---4---4--|
A|-0---0---0---0---0---0---0---0--|-0---0---0---0---0---0---0---0--|
E|--------------------------------|--------------------------------|


___A_______________________________________________________________ 
" Uh oh "
e|-x------------------------------|--------------------------------|
B|-2---2---2---2---2---2---2---2--|-2---2---2---2---2---2---2---2--|
G|-2---2---2---2---2---2---2---2--|-2---2---2---2---2---2---2---2--|
D|-2---2---2---2---2---2---2---2--|-2---2---2---2---2---2---2---2--|
A|-0---0---0---0---0---0---0---0--|-0---0---0---0---0---0---0---0--|
E|-x------------------------------|--------------------------------|


___D/A_____________________________________________________________ 
" Uh oh "
e|--------------------------------|--------------------------------|
B|-3---3---3---3---3---3---3---3--|-3---3---3---3---3---3---3---3--|
G|-2---2---2---2---2---2---2---2--|-2---2---2---2---2---2---2---2--|
D|-4---4---4---4---4---4---4---4--|-4---4---4---4---4---4---4---4--|
A|-0---0---0---0---0---0---0---0--|-0---0---0---0---0---0---0---0--|
E|--------------------------------|--------------------------------|


Then, bass and drums join in. 

Note bassline on last two strings. Use your thumb for the ---2---0--- 
notes on the E string. Use your first finger as a barre across the 
second fret for both A and D/A chords.

___A_______________________________________________________________ 
" Uh oh "
e|--------------------------------|--------------------------------|
B|-2---2---2---2---2---2---2---2--|-2---2---2---2---2---2---2---2--|
G|-2---2---2---2---2---2---2---2--|-2---2---2---2---2---2---2---2--|
D|-2---2---2---2---2---2---2---2--|-2---2---2---2---2---2---2---2--|
A|-0---0---x---x---0---0---x---x--|-0---0---x---x---0---0---x---x--|
E|---------2---0-----------2---0--|---------2---0-----------2---0--|



___D/A_____________________________________________________________ 
" Uh oh "
e|--------------------------------|--------------------------------|
B|-3---3---3---3---3---3---3---3--|-3---3---3---3---3---3---3---3--|
G|-2---2---2---2---2---2---2---2--|-2---2---2---2---2---2---2---2--|
D|-4---4---4---4---4---4---4---4--|-4---4---4---4---4---4---4---4--|
A|-0---0---x---x---0---0---x---x--|-0---0---x---x---0---0---x---x--|
E|---------2---0-----------2---0--|---------2---0-----------2---0--|


Verses:


___A_______________________________________________________________ 
         " In the cities there is   talk of         rain    and of... "
e|--------------------------------|--------------------------------|
B|-2---2---2---2---2---2---2---2--|-2---2---2---2---2---2---2---2--|
G|-2---2---2---2---2---2---2---2--|-2---2---2---2---2---2---2---2--|
D|-2---2---2---2---2---2---2---2--|-2---2---2---2---2---2---2---2--|
A|-0---0---x---x---0---0---x---x--|-0---0---x---x---0---0---x---x--|
E|---------2---0-----------2---0--|---------2---0-----------2---0--|


___D/A_____________________________________________________________ 
" fire "
e|--------------------------------|--------------------------------|
B|-3---3---3---3---3---3---3---3--|-3---3---3---3---3---3---3---3--|
G|-2---2---2---2---2---2---2---2--|-2---2---2---2---2---2---2---2--|
D|-4---4---4---4---4---4---4---4--|-4---4---4---4---4---4---4---4--|
A|-0---0---x---x---0---0---x---x--|-0---0---x---x---0---0---x---x--|
E|---------2---0-----------2---0--|---------2---0-----------2---0--|


___A_______________________________________________________________ 
         " It was  on the           air     to  day      it almost... "
e|--------------------------------|--------------------------------|
B|-2---2---2---2---2---2---2---2--|-2---2---2---2---2---2---2---2--|
G|-2---2---2---2---2---2---2---2--|-2---2---2---2---2---2---2---2--|
D|-2---2---2---2---2---2---2---2--|-2---2---2---2---2---2---2---2--|
A|-0---0---x---x---0---0---x---x--|-0---0---x---x---0---0---x---x--|
E|---------2---0-----------2---0--|---------2---0-----------2---0--|


___D/A_____________________________________________________________ 
" filled me with desire "
e|--------------------------------|--------------------------------|
B|-3---3---3---3---3---3---3---3--|-3---3---3---3---3---3---3---3--|
G|-2---2---2---2---2---2---2---2--|-2---2---2---2---2---2---2---2--|
D|-4---4---4---4---4---4---4---4--|-4---4---4---4---4---4---4---4--|
A|-0---0---x---x---0---0---x---x--|-0---0---x---x---0---0---x---x--|
E|---------2---0-----------2---0--|---------2---0-----------2---0--|


Repeat until:

Chorus:

___F#m_____________E________________D______________________________
         " Uh    oh,        uh      oh        there's panic in the... "
e|-2-------2-------0---0----------|-2------------------------------|
B|-2-------2-------0---0----------|-3------------------------------|
G|-2-------2-------1---1----------|-2------------------------------|
D|-4-------4-------2---2----------|-0------------------------------|
A|-4-------4-------2---2----------|--------------------------------|
E|-2-------2-------0---0----------|--------------------------------|

 | 1 - & - 2 - & - 3 - & - 4 - & -| 1 - & - 2 - & - 3 - & - 4 - & -|

___A_______________________________________________________________ 
" world "
e|--------------------------------|--------------------------------|
B|-2---2---2---2---2---2---2---2--|-2---2---2---2---2---2---2---2--|
G|-2---2---2---2---2---2---2---2--|-2---2---2---2---2---2---2---2--|
D|-2---2---2---2---2---2---2---2--|-2---2---2---2---2---2---2---2--|
A|-0---0---x---x---0---0---x---x--|-0---0---x---x---0---0---x---x--|
E|---------2---0-----------2---0--|---------2---0-----------2---0--|


___F#m_____________E________________D______________________________
         " Uh    oh,        uh      oh        there's panic in the... "
e|-2-------2-------0---0----------|-2------------------------------|
B|-2-------2-------0---0----------|-3------------------------------|
G|-2-------2-------1---1----------|-2------------------------------|
D|-4-------4-------2---2----------|-0------------------------------|
A|-4-------4-------2---2----------|--------------------------------|
E|-2-------2-------0---0----------|--------------------------------|


___A_______________________________________________________________ 
" world "
e|-x------------------------------|--------------------------------|
B|-2---2---2---2---2---2---2---2--|-2---2---2---2---2---2---2---2--|
G|-2---2---2---2---2---2---2---2--|-2---2---2---2---2---2---2---2--|
D|-2---2---2---2---2---2---2---2--|-2---2---2---2---2---2---2---2--|
A|-0---0---0---0---0---0---0---0--|-0---0---0---0---0---0---0---0--|
E|-x------------------------------|--------------------------------|


___D/A_____________________________________________________________ 

e|--------------------------------|--------------------------------|
B|-3---3---3---3---3---3---3---3--|-3---3---3---3---3---3---3---3--|
G|-2---2---2---2---2---2---2---2--|-2---2---2---2---2---2---2---2--|
D|-4---4---4---4---4---4---4---4--|-4---4---4---4---4---4---4---4--|
A|-0---0---0---0---0---0---0---0--|-0---0---0---0---0---0---0---0--|
E|--------------------------------|--------------------------------|


Repeat verses and chorus.

Repeat these bars and fade out.

___A_______________________________________________________________ 

e|--------------------------------|--------------------------------|
B|-2---2---2---2---2---2---2---2--|-2---2---2---2---2---2---2---2--|
G|-2---2---2---2---2---2---2---2--|-2---2---2---2---2---2---2---2--|
D|-2---2---2---2---2---2---2---2--|-2---2---2---2---2---2---2---2--|
A|-0---0---x---x---0---0---x---x--|-0---0---x---x---0---0---x---x--|
E|---------2---0-----------2---0--|---------2---0-----------2---0--|


___D/A_____________________________________________________________ 

e|--------------------------------|--------------------------------|
B|-3---3---3---3---3---3---3---3--|-3---3---3---3---3---3---3---3--|
G|-2---2---2---2---2---2---2---2--|-2---2---2---2---2---2---2---2--|
D|-4---4---4---4---4---4---4---4--|-4---4---4---4---4---4---4---4--|
A|-0---0---x---x---0---0---x---x--|-0---0---x---x---0---0---x---x--|
E|---------2---0-----------2---0--|---------2---0-----------2---0--|



Lyrics:

Uh oh uh oh
In the cities there is talk of rain and of fire.
It was on the air today
It almost filled me with desire.
All our skies are grey
They say the dreamers line the streets.
Looking out from hollow houses, rivers running at their feet.

Uh oh, uh oh
There's panic in the world
Uh oh, uh oh
There's panic in the world

My love and I we escaped we left no trace
For they had raped both body and soul.
The taste was much too hard to swallow
We ran naked through the cold.

Above our heads in fiery red
The clouds they bled like open wounds across the sky
The wings of many nations
Falling, burning, turning...
Trying oh, so hard to die.

Uh oh, uh oh
There's panic in the world
Uh oh, uh oh
There's panic in the world

We'll find an island
We'll burn the maps
We'll lock our hearts and throw the keys into the sea.
Let's be survivors
They'll never find us
It's all behind us
I know a place they've never been.

In new horizons
In golden swarms
In comes tomorrow
It's thunderstorms over the hill.
The future falls beyond these walls, destiny calling
Like the dawn, a sweeter thrill.

Uh oh, uh oh
There's panic in the world
Uh oh, uh oh
There's panic in the world

Panic in the world...


| /  slide up
| \  slide down
| h  hammer-on
| p  pull-off
| ~  vibrato
| +  harmonic
| x  Mute note
===============================================================================
Добавлено: 07.04.2012
Другие материалы по этой песне:
  • Аккорды и текст

Страница создана 07.04.2012
http://primanota.ru/be-bop-deluxe/panic-in-the-world-chords.htm
Привет, Гость.
Предлагаем пройти революционный курс по гитаре.
Подарок от PrimaNota.Ru, забирай!